Still Loving You Tab por Scorpions

0 Acordes utilizados en la canción:

ImprimirAñadir esta tab a su SongBook
Tablature / ChordsFont size: A- A A+

¿ No sabe cómo leer una tablatura o un acorde ?

curso de ukulele

Still Loving You by Scorpions
(or "Still Loving Uke")


-----1----------5----------1--------4-3-1-------
--------3----------3----------3-------------3----
--2-------2--5-------5--3--------3---------------
-------------------------------------------------


-----1-------1-------------3----
--------3----------2-------------
--3-------3-----2-----2----------
-------------------------2-------

h p
-----1----------5----------1---------4-3-4-3-1-------
--------3----------3----------3------------------3----
--2-------2--5-------5--3--------3--------------------
------------------------------------------------------


-----1-------1--------------3----
--------3----------2--------2----
--3--------3----2-----2-----2----
-------------------------2--2----


Time xx xxxxx xxxx to xxx xxxx your xxxx again
--1--------1--------1--------1----
--3--------3--------3--------3----
--2--------2--------2--------2----
--0--------0--------0--------0----

I xxxx be xxxx x will xx there
--4--------4--------5--------5----
--5--------5--------5--------5----
--4--------4--------6--------6----
--6--------6--------7--------7----

Love...
--1----1----1----1----
--3----3----3----3----
--2----2----2----2----
--0----0----0----0----

I will...
--4----4----5----5-5-5----
--5----5----5----5-5-5----
--4----4----6----6-7-6----
--6----6----7----7-7-7----

If xx'x go xxxxx all xxx xxx from the xxxxx
--1--------6--------1--------0----
--3--------6--------1--------1----
--2--------3--------2--------0----
--0--------3--------3--------2----

I xxxxx xxx to xxxxxx the xxxxxx that xxxxxx our xxxx
--1--------6--------1--------0----
--3--------6--------1--------1----
--2--------3--------2--------0----
--0--------3--------3--------2----

Your xxxxx has xxxxx a xxxx so xxxxxx that I xxx'x get xxxxxxx
--1--------3--------5--------1--------5----
--3--------3--------5--------3--------5----
--2--------0--------2--------2--------5----
--0--------0--------2--------0--------7----

Is xxxxx xxxxxx no xxxxxx to xxxxx once xxxxx
--6--------------8----
--6--------------8----
--3--------------5----
--3--------------5----

# These are the basic parts of the song. Arrange it as you wish.
# Transcribed by Lance Stevens

 

Comentarios (1)
Debes iniciar sesión para unirte a la discusión
o Registrarse

 

JaxX avatar
flag for DE(ISO2) (Berlin)
Nice once, but quick remark: the first '5' on the A-string is wrong, should be a '1' ;)
31 Jul 2013
Acerca de esta canción

No hay información por esta canción.