Why Don't You And I (Intro) Tab por Santana

tablatura Ukulele sin acordes.

Añadir esta tab a su SongBook
Tablature / ChordsFont size: A- A A+

¿ No sabe cómo leer una tablatura o un acorde ?

curso de ukulele

WHY DON'T YOU AND I


x------------------------------------------------
x--------------------------------------------3---
x---2--------------------------------------2-----
x-----5--5-3--3-2-2-2-5-3-2--3-2-0--0-2-3--------

x-------------------------------------------------
x-3--5--6--6-----6--------------------------------
x-------------------------------------------------
x-------------5-----5---7--8--7--7--5--7--10--8---

x-------------------------------------------------
x-------6-----------------------------------------
x-------------------------------------------------
x-7--5-----5---7--5--7----------------------------


PS: Don't forget to rate if you find it useful! Enjoy!

 

Comentarios (0)
Ningún comentario :(
¿Necesitas ayuda, un consejo para compartir o simplemente quieres hablar sobre esta canción? Comience la discusión

Debes iniciar sesión para unirte a la discusión
o Registrarse

 

Acerca de esta canción

No hay información por esta canción.