Soul Sacrafice (with Intro Solo) (Intro) Tab por Santana

tablatura Ukulele sin acordes.

Añadir esta tab a su SongBook
Tablature / ChordsFont size: A- A A+

¿ No sabe cómo leer una tablatura o un acorde ?

curso de ukulele

|---5~-|
|---5~-|
|-0-5~-|
|------|

|-5--5-5-7--5-| |-5--5-5-7--7-7-5-|
|-5--5-5-7--5-| |-5--5-5-7--7-7-5-|
|-5--5-5-7--5-| |-5--5-5-7--7-7-5-|
|-------------| |-----------------|

|--------------------------------------|
|-5--5-5-5--8p5-7-------5--5-5-5-------|
|--------------------------------5s2-5-| X2
|--------------------------------------|

|----8--8-8-8-8p5-------8--8-8p5--------|
|-5-------------------------------------|
|--------------------------------7bbr-2-|
|---------------------------------------|

|----8--8-8-8-8p5----------5--5h8p5-|
|-5--------------------5h8----------|
|-----------------------------------|
|-----------------------------------|

|-8--12--8--------5h8---5------8--12--8-----------5--5h8p5-|
|---------------5----------------------------5h8-----------|
|----------------------------------------------------------|
|----------------------------------------------------------|

the rest is soon to come

 

Comentarios (0)
Ningún comentario :(
¿Necesitas ayuda, un consejo para compartir o simplemente quieres hablar sobre esta canción? Comience la discusión

Debes iniciar sesión para unirte a la discusión
o Registrarse

 

Acerca de esta canción

No hay información por esta canción.