Enter Sandman (Intro) Tab por Metallica

0 Acordes utilizados en la canción:

Añadir esta tab a su SongBook
Tablature / ChordsFont size: A- A A+

¿ No sabe cómo leer una tablatura o un acorde ?

curso de ukulele

this is just the clean intro 
to metallicas song enter sandman




repeat this over and over
until heavy parts come in
|-----------------------------------||
|------8------------8---------------||
|--0---------6--5------0------------||
|-----------------------------------||

 

Comentarios (2)
Debes iniciar sesión para unirte a la discusión
o Registrarse

 

emotrashlane avatar
flag for US(ISO2) (Dallas)
|----------6-------------------------||
|------8-------------8---------------||
|--0----------6--5------0------------||
|------------------------------------||

Source: www.ukulele-tabs.com
31 Jan 2018
Joeukes avatar
flag for GB(ISO2) (Truro)
It is missing the third note in the tab sequence which is A-string 6th fret
10 Mar 2010
Acerca de esta canción

No hay información por esta canción.