Black Magic Woman (Solo) Tab por Santana

tablatura Ukulele sin acordes.

Añadir esta tab a su SongBook
Tablature / ChordsFont size: A- A A+

¿ No sabe cómo leer una tablatura o un acorde ?

curso de ukulele

Carlos Santana: black magic woman

So this is my first tab, sorry about the ending its a little off but play the song to the actual song and you'll know what is what

A|--------|-----------|----------|-----------|-------------|-------------|
E|-3-1----|-----------|-1-3-1----|-3---------|-5---3--1--0-|-3--1--0-----|
C|--------|--2-4-2----|----------|----2-4-2--|-------------|-----------2-|
G|--------|-----------|----------|-----------|-------------|-------------|

A|-------------|---------|-----------------5----|
E|-5---3--1--0-|--3-1----|-------------5--------|
C|-------------|---------|----------------------|
G|-------------|---------|--7--5--7-------------|

A|------------------------|-----|--------------7--8---3--5--|-------|
E|--------------5---3-3--5|--5--|---------------------------|-------|
C|------------------------|-----|---------------------------|--4----|
G|--7----7--5—------------|-----|-5--7--9--10---------b-----|-------|

A|---------------------|--------------------------|-------------------------
E|------5--------------|---------------------5----|-------------5--3--5-----|
C|-4-5-----------------|--------------------------|----------------------5--|
G|---------5--9--10--9--|-10--9--7--5--7--5-------|-5--7--7--5-------b------|

A|------------------------------|----------|------------------------------|
E|-3--6----------b------b-------|----b-----|-3--5--3-----3--5-3-----3-----|
C|------------------------------|----------|----------5----------5-----5--|
G|----7--9--10--12---12--14--10--7--10-|-14--15--7--|---b-----------------|

A|-------------------------|-9-----|
E|--------------5--4--3----|-10----|
C|-----------------------5-|-9----|
G|-7--5--7---5-------------|-10----|

A|----------------------|----------|----------------------------------|
E|----------------------|-------5--|----------------5--3--5--3-------|
C|----------------------|----------|----------------------------5--4-|
G|-5--7--7--5--7--5--7--|-5--7-----|-10--9--7--5--7-------b--b--------|

A|------------|--------------------|-----------------------|----------------|
E|------5-----|-------------------|---b-------b------|---b--b------|
C|-4-5--------|-------------------|------------------|-------------|
G|---------5--|-9--10--9--7--5--7--|-10--12----12--14--10--|-12--13--14--10-|

A|----------------------|-------------------------|-------53-------------|
E|---b------------------|-------5--3--5--------5--|----5-----5--3--5-----|
C|---------|------------|----------------5-----5--|-------------------5--|
G|-15--17--|-9-10--9--7---9-10--9--7--5--7--|-7--5-------b------7-----7--|

A|---------------------------|-------------|------------------------------|-|
E|---b------b------b---|-------------|-------------5--3--3--5------5--------|
C|---------------------|-------------|-------------------------5--4-|-4-5---|
G|-10--12---12--14---10--12--|-4--6--4--6--|-5--7--7--5----------b----5--7--|

A|-----------------------7---|--------------|--------------------------|----|
E|-------------------5------|-5---------3--|-6----------b-----b---|---b-----|
C|--------------------------|-5--5---------|----------------------|---------|
G|-7--5--7--5--7--5------7--|--------------|----7--9--10--12--12--14--|-15--|

A|--------------------|-------------------|---------------------------------|
E|-3--5--3--5---------|-5--------5--------|----------------------5-----5--3-|
C|--------------------|-------------------|---------------------------------|
G|---b--b--b----5--7--|----5--7-----5--7--|-10--7--10--7--10--7--5-----5----|

A|----------------------|
E|-3--4--5--------------|
C|----------------4-5---|
G|----------5--7--------|

Peace out my fellow uke players!

 

Comentarios (0)
Ningún comentario :(
¿Necesitas ayuda, un consejo para compartir o simplemente quieres hablar sobre esta canción? Comience la discusión

Debes iniciar sesión para unirte a la discusión
o Registrarse

 

Acerca de esta canción

No hay información por esta canción.