Black Magic Woman Tab por Santana

tablatura Ukulele sin acordes.

Añadir esta tab a su SongBook
Tablature / ChordsFont size: A- A A+

¿ No sabe cómo leer una tablatura o un acorde ?

curso de ukulele

P         s s        H P           s s             s            s     
A|--------|-----------|----------|-----------|----------7--|-------7-5--|
E|-3-1----|--2-4-2----|-1-3-1----|-3---------|-5---3--1----|-3--1-------|
C|--------|-----------|----------|----2-4-2--|-------------|------------|
G|--------|-----------|----------|-----------|-------------|------------|
s
A|----------7--|------7-|---------------------|
E|-5---3--1----|--3-1---|----5---------5------|
C|-------------|--------|----------5----------|
G|-------------|--------|-7-----7---------7---|
P P P
A|------------------------|-----|---------------------------|-------|
E|----------------5-------|--5--|-------------5--3--3--5----|-------|
C|------------------------|-----|-------------------------5-|--4----|
G|--5----5--5--7-----5--7-|-----|-5--7--7--5----------b-----|-------|
s H P P P P
A|----------------------|-----------------------------|-------------------------|
E|------5--------------|-------------------------5--|-------------5--3--5-----|
C|-4-5-----------------|----------------------------|----------------------5--|
G|---------5--9--10--9--|-10--9--7--5--7--5--7--5-----|-5--7--7--5-------b------|
P s P H H P
A|----------------------------------------|------------|------------------------------|
E|-3--6----------b------b-----------|---b------|-3--5--3-----3--5-3-----3-----|
C|----------------------------------|----------|----------5----------5-----5--|
G|-------7--9--10--12---12--14--10--7--10-|-14--15--7--|---b--b-----------------------|
s
A|-------------------------|-9-----|
E|--------------5--4--3----|-10----|
C|-----------------------5-|-9----|
G|-7--5--7---5-------------|-10----|
P P P P s
A|----------------------|----------|----------------------------------|
E|----------------------|-------5--|----------------5--3--5--3-------|
C|----------------------|----------|----------------------------5--4-|
G|-5--7--7--5--7--5--7--|-5--7-----|-10--9--7--5--7-------b--b--------|
s H P P P P
A|------------|--------------------|-----------------------|-----------------|
E|------5-----|-------------------|---b-------b------|---b--b------|
C|-4-5--------|-------------------|------------------|-------------|
G|---------5--|-9--10--9--7--5--7--|-10--12----12--14--10--|-12--13--14--10--|
H P P H P P P P P P
A|-----------|----------------------------------|-------------------------|-------53-------------|
E|---b-----|--------------------------------|-------5--3--5--------5--|----5-----5--3--5-----|
C|---------|--------------------------------|----------------5-----5--|-------------------5--|
G|-15--17----|-9--10--9--7---9--10--9--7--5--7--|-7--5-------b------7-----|-7-------------b------|
P s s
A|---------------------------|-------------|------------------------------|---------------|
E|---b------b------b---|-------------|-------------5--3--3--5-------|------5--------|
C|---------------------|-------------|-------------------------5--4-|-4-5-----------|
G|-10--12---12--14---10--12--|-4--6--4--6--|-5--7--7--5----------b--------|---------5--7--|
P
A|-----------------------7---|--------------|--------------------------|------------------------|
E|-------------------5------|-5---------3--|-6----------b-----b---|---b------b22b--b22-|
C|--------------------------|-5--5---------|----------------------|--------------------|
G|-7--5--7--5--7--5------7--|--------------|----7--9--10--12--12--14--|-15--17---17-----17-----|
H P H P H P P H P P H P
A|--------------------|-------------------|----------------------------------------------------|
E|-3--5--3--5---------|-5--------5--------|----------------------5-----5--3-----3-----------|
C|--------------------|-------------------|----------------------------------5-----5--------|
G|---b--b--b----5--7--|----5--7-----5--7--|-10--7--10--7--10--7--5-----5-----------------7--5--|
H H H s
A|----------------------|
E|-3--4--5--------------|
C|----------------4-5---|
G|----------5--7--------|

 

Comentarios (0)
Ningún comentario :(
¿Necesitas ayuda, un consejo para compartir o simplemente quieres hablar sobre esta canción? Comience la discusión

Debes iniciar sesión para unirte a la discusión
o Registrarse

 

Acerca de esta canción

No hay información por esta canción.