Du Hast (Riff) Tab por Rammstein

tablatura Ukulele sin acordes.

Añadir esta tab a su SongBook
Tablature / ChordsFont size: A- A A+

¿ No sabe cómo leer una tablatura o un acorde ?

curso de ukulele

*-7\5--------------------7\5------------------------------||
*-5\3--0---0--0-0-0--0-0-5\3----0--0--0--0-0-0--0-0-0-0-||
*---------------------------------------------------------||
*---------------------------------------------------------||

*-5/7-----------------------|
*-3/5--5--5--5-5-5--5-5-5-5-|
*---------------------------|
*|---------------------------|

 

Comentarios (1)
Debes iniciar sesión para unirte a la discusión
o Registrarse

 

Bhisha avatar
what the fuck are these 3 tabs.
28 Dec 2019
Acerca de esta canción

No hay información por esta canción.