Mr.crowley (Intro) Tab por Ozzy Osbourne

tablatura Ukulele sin acordes.

Añadir esta tab a su SongBook
Tablature / ChordsFont size: A- A A+

¿ No sabe cómo leer una tablatura o un acorde ?

curso de ukulele

Dm Dm                  Am Am                  F F               C C

A-----------------|-0--------0---0----|---------0---2-|-3-------3--3~--2----|
E--1---0---1---3--|-0----0----------3-|-1---3---------|-0---3---0-----------|
C--2--------------|-0-----------------|---------------|-0-------0-----------|
G--2--------------|-2------------2--0-|-2-------2---4-|-0-------0--0--------|



Am Am Em Em Am Am A# A# A7 A7
|-------------5-|-7~--0-----|-0-1-----------0-------|--------------|
|-0-------------|-0-------0-|-1-1-1-3-1-0-1-0-------|-1~-0---------|
|-0-------------|-----------|-2-2-----------1-------|--------------|
|-2---4---5-----|-----------|-2-3-------------------|--------------|



Dm Dm Am Am F F C C

|-----------------|-0--------0---0----|---------0---2-|-3-------3--3~--2----|
|--1---0---1---3--|-0----0----------3-|-1---3---------|-0---3---0-----------|
|--2--------------|-0-----------------|---------------|-0-------0-----------|
|--2--------------|-2------------2--0-|-2-------2---4-|-0-------0--0--------|



Am Am Em Em Am Am A# A# A A
|-------------5-|-7~--0-----|-0-1-------------------|--------------|
|-0-------------|-0-------0-|-1-1-1-3-1-0-1-0-------|-1~-0---------|
|-0-------------|-----------|-2-2-----------1-------|--------------|
|-2---4---5-----|-----------|-2-3-----------2-------|--------------|

 

Comentarios (0)
Ningún comentario :(
¿Necesitas ayuda, un consejo para compartir o simplemente quieres hablar sobre esta canción? Comience la discusión

Debes iniciar sesión para unirte a la discusión
o Registrarse

 

Acerca de esta canción

No hay información por esta canción.