Crazy Train (Intro) Tab por Ozzy Osbourne

tablatura Ukulele sin acordes.

Añadir esta tab a su SongBook
Tablature / ChordsFont size: A- A A+

¿ No sabe cómo leer una tablatura o un acorde ?

curso de ukulele

# Bass Line
A|----------------------------------------------5-5-----------------------|
E|--2-2-----------5-5------0-0-----2-2-----------------0-0---2-2----------|
C|------------------------------------------------------------------------|
G|------------------------------------------------------------------------|



# Guitar
A|------4---5---4---2--------2--------------4---5---4---2--------2--------|
E|--2-2---2---2---2----5-4-5---5-4-0----2-2---2---2---2----5-4-5---5-4-0--|
C|------------------------------------------------------------------------|
G|------------------------------------------------------------------------|

 

Comentarios (2)
Debes iniciar sesión para unirte a la discusión
o Registrarse

 

DoctorUke avatar
Sounds really good.
11 Dec 2012
tozwah avatar
WOW sounds spot on!
Good job!
09 Dec 2012
Acerca de esta canción

No hay información por esta canción.