Slowly We Rot (Riff) Tab por Obituary

tablatura Ukulele sin acordes.

Añadir esta tab a su SongBook
Tablature / ChordsFont size: A- A A+

¿ No sabe cómo leer una tablatura o un acorde ?

curso de ukulele

h - hammer on
p - pull off


A|-2--2-2--2-2--3--2-2--2-2-|-5--2-2--2-2--5--4--3-|
E|-0--0-0--0-0--1--0-0--0-0-|-3--0-0--0-0--3--2--1-|
C|--------------------------|----------------------|x6
G|--------------------------|----------------------|

A|---------------------------------|-----------------5--|
E|-0h2-2-2-2-2-2-2-0h2-2-2-2-2-2-2-|-3p2-2-2-2-2-2-2-3--|
C|---------------------------------|--------------------|x4
G|---------------------------------|--------------------|

A|-2--2-2--2-2--3--2-2--2-2-|-5--2-2--2-2--5--4--3-|
E|-0--0-0--0-0--1--0-0--0-0-|-3--0-0--0-0--3--2--1-|
C|--------------------------|----------------------|x4
G|--------------------------|----------------------|

 

Comentarios (0)
Ningún comentario :(
¿Necesitas ayuda, un consejo para compartir o simplemente quieres hablar sobre esta canción? Comience la discusión

Debes iniciar sesión para unirte a la discusión
o Registrarse

 

Acerca de esta canción

No hay información por esta canción.