Overwatch Main Theme Tab por Neal Acree

tablatura Ukulele sin acordes.

Añadir esta tab a su SongBook
Tablature / ChordsFont size: A- A A+

¿ No sabe cómo leer una tablatura o un acorde ?

curso de ukulele

A|--0-----0--2-----2--4--------0--4--7--12--10--9--7--9--5--5--7-----------------------------5--0--5--7--
E|-----0--------0----------------------------------------------------------------0-----0--2--------------
C|--1--------1--------1-------------------------------------------------2-----2-----------2--------------
G|--2--------2--------2----------------------------------------------------2--------2-----2--------------

A|--0--7--9--10--5-----5--5--5--10--8--3--3--2-----------------0-----0--2-----2--4-----4--6--
E|----------------------------------------------------3-----3--3--------3--2--------2--------
C|-------------------------------------------------------2-----2--2-----2--------------------
G|-------------------------------------------------------------------------------------------

 

Comentarios (0)
Ningún comentario :(
¿Necesitas ayuda, un consejo para compartir o simplemente quieres hablar sobre esta canción? Comience la discusión

Debes iniciar sesión para unirte a la discusión
o Registrarse

 

Acerca de esta canción

No hay información por esta canción.