We Wish You A Merry Christmas Tab por Misc Christmas

tablatura Ukulele sin acordes.

Añadir esta tab a su SongBook
Tablature / ChordsFont size: A- A A+

¿ No sabe cómo leer una tablatura o un acorde ?

curso de ukulele

A|-----------0-----------------------------------------------------2--2--3--2--0---------------------------|

E|-----3--3-----3--2--0--0----0--5--5--7--5--3--2----------------------------------0--------0--5--2--3-|

C|--2--------------------------------------------------2--2----2-------------------------2--2--------------|

G|----------------------------------------------------------------------------------0------------------------|


A|--------------------------------------0--2--0-----5------------------0-----------|

E|---------------2----2----2--0-------------------------------------0-----2--------|

C|--2----------------------------2----------------------2----2--2------------------|

G|-----0--0--0----------0-------------------------0---------------------------0---|

 

Comentarios (0)
Ningún comentario :(
¿Necesitas ayuda, un consejo para compartir o simplemente quieres hablar sobre esta canción? Comience la discusión

Debes iniciar sesión para unirte a la discusión
o Registrarse

 

Acerca de esta canción

No hay información por esta canción.