Silent Night (harmonics) Tab por Misc Christmas

tablatura Ukulele sin acordes.

Añadir esta tab a su SongBook
Tablature / ChordsFont size: A- A A+

¿ No sabe cómo leer una tablatura o un acorde ?

curso de ukulele

-----12------------12--------------------------------12---12----------12-
-----------12-------------12--------7------------------------------7-----
-----------------------------------------5---5-----------------5---------
-12-----12------12----12------7--7---------------12----------------------


----12----------12--12----------12--------12----------------------------7
-----------12---------------7------------------12---------5----7---------
-------------------------5------------------------------------------5----
-12-----12----------------7--7--------12-----12-----7---7----7-----------


------------------------------------
--------12----------7---------------
--5----------------------12---7---5-
-----12-----12---7------------------


TO PLAY HARMONIC: cover your finger on the fret, do not press hard.

 

Comentarios (0)
Ningún comentario :(
¿Necesitas ayuda, un consejo para compartir o simplemente quieres hablar sobre esta canción? Comience la discusión

Debes iniciar sesión para unirte a la discusión
o Registrarse

 

Acerca de esta canción

No hay información por esta canción.