O Tannenbaum (harmony) Tab por Misc Christmas

tablatura Ukulele sin acordes.

Añadir esta tab a su SongBook
Tablature / ChordsFont size: A- A A+

¿ No sabe cómo leer una tablatura o un acorde ?

curso de ukulele

Main Riff

A|-------000-0-01-------33-5-3311-11-3-1100---------------------|
E|--111-3-----3--031------5---------3---------------------------|
C|-0------------------------------------------------------------|
G|--------------------------------------------------------------|


Harmony

A|--------------------------------------------------------------|
E|-------111-1-13-------11---1100-00---0011---------------------|
C|-0000-4-----4--000------5---------4---------------------------|
G|--------------------------------------------------------------|


Together

A|-------000-0-01-------33-5-3311-11-3-1100---------------------|
E|--111-3111-1313031----115--1100-003--0011---------------------|
C|-0000-4-----4--000------5---------4---------------------------|
G|--------------------------------------------------------------|

 

Comentarios (1)
Debes iniciar sesión para unirte a la discusión
o Registrarse

 

babbustaman avatar
This is a great version
10 Oct 2019
Acerca de esta canción

No hay información por esta canción.