Silent Night Tab por Misc Christmas

tablatura Ukulele sin acordes.

Añadir esta tab a su SongBook
Tablature / ChordsFont size: A- A A+

¿ No sabe cómo leer una tablatura o un acorde ?

curso de ukulele

A|----0------------0--------5--5--2----3--3------|
E|--3---3--0----3---3--0---------------------3---|
C|-------------------------------------------------|
G|-------------------------------------------------|



A|--0--0--3--2--0----0--------0--0--3--2--0----------|
E|------------------3----3--0------------------3--0----|
C|-------------------------------------------------------|
G|-------------------------------------------------------|



A|--5--5--8---5--------7-----3------------------------|
E|----------------7--8-----------3--0--3---1----------|
C|---------------------------------------------2--0----|
G|-----------------------------------------------------|

 

Comentarios (1)
Debes iniciar sesión para unirte a la discusión
o Registrarse

 

Max1345 avatar
flag for US(ISO2) (garland)
it does get a bit confusing but overall its very accurate
08 Nov 2018
Acerca de esta canción

No hay información por esta canción.