Winter Wonderland Tab por Misc Christmas

tablatura Ukulele sin acordes.

Añadir esta tab a su SongBook
Tablature / ChordsFont size: A- A A+

¿ No sabe cómo leer una tablatura o un acorde ?

curso de ukulele

A|----------------------------------------|
E|-3-3-3-3-3-0-3-3-3-3-3-3-1-3------------|
C|----------------------------------------|
G|----------------------------------------|
Sleigh bells ring are you listening? In the lane snow is glistening.


A|---2-2-2-0-0----------------------------|
E|-3-----------3-3-3-1-0-0-0-0------------|
C|-----------------------------2-2-2-2-0--|
G|----------------------------------------|
A A beautiful sight oh we're happy tonight walking in a winter wonderland


A|----------------------------------------|
E|-3-3-3-3-3-0-3-3-3-3-3-3-1-3------------|
C|----------------------------------------|
G|----------------------------------------|
Gone away is the bluebird. Here to stay is a new bird


A|---2-2-2-0-0----------------------------|
E|-3-----------3-3-3-1-0-0-0-0------------|
C|-----------------------------2-2-2-2-0--|
G|----------------------------------------|
He sings a love song as we go along walking in a winter wonderland


A|--------------0-0----------------0-0-------2-2-----3-3-2----|
E|-------4-3--------4-0-----4-3--------4---------0-0-------3--|
C|-0-0-0-----10---------0-0-----10-------2-2------------------|
G|------------------------------------------------------------|
In the meadow we can build a snowman and pretend that he is Parson Brown
He'll say are you married, we'll say no man


A|---2-2-----0-0--------------------------|
E|-3-----0-0---------3--------------------|
C|---------------2-2----------------------|
G|----------------------------------------|
But you can do the job when you're in town


A|-----------------------------2-2-2-0----|
E|-3-3-3-3-3-0-3-3-3-3-3-3-1-3------------|
C|----------------------------------------|
G|----------------------------------------|
Later on we'll conspire as we dream by the fire
To face unafraid of the plans that we made


A|-0--------------------------------------|
E|---3-3-3-1-0-0-0-0----------------------|
C|-------------------2-2-2-2-0------------|
G|----------------------------------------|

Walking in a winter wonderland

 

Comentarios (0)
Ningún comentario :(
¿Necesitas ayuda, un consejo para compartir o simplemente quieres hablar sobre esta canción? Comience la discusión

Debes iniciar sesión para unirte a la discusión
o Registrarse

 

Acerca de esta canción

No hay información por esta canción.