Good King Wenceslas Tab por Misc Christmas

tablatura Ukulele sin acordes.

Añadir esta tab a su SongBook
Tablature / ChordsFont size: A- A A+

¿ No sabe cómo leer una tablatura o un acorde ?

curso de ukulele

E|------------------|------------------|------------------|------------------|
A|-1---1---1--------|-1---1------------|-------------0----|-1-------1--------|
C|-0-------0--------|-0-------0--------|-2---0---2---0----|-0-------0--------|
G|-------------0----|------------------|------------------|------------------|

E|------------------|------------------|------------------|------------------|
A|-1---1---1--------|-1---1------------|-------------0----|-1-------1--------|
C|-0-------0--------|-0-------0--------|-2---0---2---0----|-0-------0--------|
G|-------------0----|------------------|------------------|------------------|

E|-3---1---0--------|-0----------------|------------------|------------------|
A|-0-------1--------|-1-------1--------|-------------0----|-1-------1--------|
C|------------------|---------0--------|-2---0---2--------|-0-------0--------|
G|-0-----------0----|-----0------------|------------------|------------------|

E|------------------|------------------|-3---1---0--------|---------1--------|------------------|
A|-------------0----|-1---1---0--------|-0-------1--------|-1----------------|-1----------------|
C|-0---0---2---0----|---------0--------|------------------|-0-------2--------|-0----------------|
G|------------------|------------------|-0-----------0----|------------------|------------------|

 

Comentarios (0)
Ningún comentario :(
¿Necesitas ayuda, un consejo para compartir o simplemente quieres hablar sobre esta canción? Comience la discusión

Debes iniciar sesión para unirte a la discusión
o Registrarse

 

Acerca de esta canción

No hay información por esta canción.