Frosty The Snowman Tab por Misc Christmas

tablatura Ukulele sin acordes.

Añadir esta tab a su SongBook
Tablature / ChordsFont size: A- A A+

¿ No sabe cómo leer una tablatura o un acorde ?

curso de ukulele

A--------------------3-----2--3--5--3--2--0-----2--3--5--3--2--0-----3--------0-----------------
E--3-----0-----1--3--3-----1--1--1--1--1--1--3--1--1--1--1--1--1--3-----3--3-----3-----------3--
C-----0--------------------0--0--0--0--0--0--4--0--0--0--0--0--0--4--------5--------5--4--5-----
G--0--------0-----------0--2--2--2--2--2--2--5--2--2--2--2--2--2--5--------4--------------------

A--------------------3-----2--3--5--3--2--0-----2--3--5--3--2--0-----3--------0-----------------
E--3-----0-----1--3--3-----1--1--1--1--1--1--3--1--1--1--1--1--1--3-----3--3-----3--------------
C-----0--------------------0--0--0--0--0--0--4--0--0--0--0--0--0--4--------5--------5--4--2--0--
G--0--------0-----------0--2--2--2--2--2--2--5--2--2--2--2--2--2--5--------4--------------------

A--1--1--0--0--3--3--2--0-----------0-----------------------0--0--3--5--5--5--3-----------
E--0--0--1--1--1--1--1-----3--1--0-----3--1--0--------2--2--2--2--2--3--3--3-----7--5--3--
C--0--0--0--0--0--0--2-----------0-----------0--2--2--2--2--------2--5--5--5-----------5--
G--0--0--2--2--2--2--0-----------0-----------2--2--2--------------2--4--4--4-----------4--

A--------------------3-----2--3--5--3--2--0-----2--3--5--3--2--0-----3--------0-----------------
E--3-----0-----1--3--3-----1--1--1--1--1--1--3--1--1--1--1--1--1--3-----3--3-----3--------------
C-----0--------------------0--0--0--0--0--0--4--0--0--0--0--0--0--4--------5--------5--4--2--0--
G--0--------0-----------0--2--2--2--2--2--2--5--2--2--2--2--2--2--5--------4--------------------

 

Comentarios (0)
Ningún comentario :(
¿Necesitas ayuda, un consejo para compartir o simplemente quieres hablar sobre esta canción? Comience la discusión

Debes iniciar sesión para unirte a la discusión
o Registrarse

 

Acerca de esta canción

No hay información por esta canción.