Married Life (up) Tab por Michael Giacchino

tablatura Ukulele sin acordes.

4.1/10
ImprimirAñadir esta tab a su SongBook

Tablature / Chords (Canción entera)

Font size: A- A A+

Album: 
Año:  2009
Key: desconocidotablatura (sin acordes )
tonalidad original: +4.0 mediotono (afinación original)
progresión de acordes arreglados para el ukulele.
---------------------------------------------------------------------------------------0---

---1---5----1----0---------1----5----1----------------------------------------------------3

--------------------------------------------2-------2-----5------2----0----0----2----5-----

--------------------------------------------------------------------------------------------






--------0----------------------------------------------------------------------------------

--------------3--1---0------------0---3--0-------------------------------------------------

---0----------------------------------------2--------2------5----2----0--------------------

---------------------------------------------------------------------------------------------

Tab por , 22 jun 2011

Comentarios (1)

Comentar
¡Comparte tus patrones de rasgueo, acordes o consejos para tocar este tab!
Filtrar por:
CerbinSpeckle1 avatar
flag for US(ISO2) (Los Angeles)
not finished :(
18 Sep 2020
Comentario

Top Tabs & Acordes de Michael Giacchino, ¡no te pierdas estas canciones!

Acerca de esta canción: Married Life (up)

No hay información por esta canción.

¿Has versionado a Married Life (up) con tu Ukelele? Comparte tu trabajo!
Submit a cover