Symphony Of Destruction Tab por Megadeth

tablatura Ukulele sin acordes.

Añadir esta tab a su SongBook
Tablature / ChordsFont size: A- A A+

¿ No sabe cómo leer una tablatura o un acorde ?

curso de ukulele

A--------3-2--2----|-3-2--2-----------|-3-2--2------------------------|
E-1-3-1--1-0--0----|-1-0--0-----1-3-1-|-1-0--0------------------------|
C--------5-4--4----|-5-4--4-----------|-5-4--4------------------------|
G------------------|------------------|-------------------------------|

A-3-2--2-----------|-3-2--2-----------|-3-2--2-------------------------|
E-1-0--0-----------|-1-0--0-----1-3-1-|-1-0--0-------------------------|
C-5-4--4-----------|-5-4--4-----------|-5-4--4-------------------------|
G------------------|------------------|--------------------------------|

A-3-2--2-----------|-3-2--2-----------|-3-2--2-------------------------|
E-1-0--0-----------|-1-0--0-----1-3-1-|-1-0--0-------------------------|
C-5-4--4-----------|-5-4--4-----------|-5-4--4-------------------------|
G------------------|------------------|--------------------------------|

A-3-2--2-----------|-3-2--2-----------|-3-2--2-------------------------|
E-1-0--0-----------|-1-0--0-----1-3-1-|-1-0--0-------------------------|
C-5-4--4-----------|-5-4--4-----------|-5-4--4-------------------------|
G------------------|------------------|--------------------------------|

A-------7-----6-----5-----10-12--10-|-7-----6-----5-----10-12--10-|
E-0--0-----0-----0-----7------------|----0-----0-----7------------|
C-------9-----8-----7---------------|-9-----8-----7---------------|
G-----------------------------------|-----------------------------|

A-------7-----6-----5-----10-12--10-|-7-----6-----5------------|
E-0--0-----0-----0-----7------------|----0-----0-----7---------|
C-------9-----8-----7---------------|-9-----8-----7------------|
G-----------------------------------|-------------------4h5-4--|

A-7----6-----5-----10-12--10-|-7-----6-----5-----10-12--10-|
E---0-----0-----7------------|----0-----0-----7------------|
C-9----8-----7---------------|-9-----8-----7---------------|
G----------------------------|-----------------------------|
H H

A-------------------------|-------------------7----7-|
E-5----4-----3------------|-5-----4-----3-------1----|
C-4-4--3--4--2------------|-4--4--3--4--2------------|
G---------------4--4-5--5-|----------------4---------|

A-7-----6-----5-----10-12--10-|-7-----6-----5-----10-12--10-|
E----0-----0-----7------------|----0-----0-----7------------|
C-9-----8-----7---------------|-9-----8-----7---------------|
G-----------------------------|-----------------------------|
H H

A-------------------7----7-|-------------------7----7-|
E-5-----4-----3-------1----|-5-----4-----3-------1----|
C-4--4--3--4--2------------|-4--4--3--4--2------------|
G----------------4---------|----------------4---------|

A-7-----6-----5-----10-12--10-|-7-----6-----5\-------5---|
E----0-----0-----7------------|----0-----0-----0--0------|
C-9-----8-----7---------------|-9-----8-----7------------|
G-----------------------------|-------8-----7\-----------|
H S

A-------------------7----7-|--------------------------|
E-5-----4-----3-------1----|-5-----4-----3------------|
C-4--4--3--4--2------------|-4--4--3--4--2---4--4--2--|
G----------------4---------|-------8-----7------------|

A----------------------|
E-6--5--4--3-----------|
C-------------6--5--4--|
G----------------------|

A-----7--7-----7--7--|-12--5--5--11--7--7---------|
E-----0--0-----0--0--|---------------------7~-7~--|
C--------------------|----------------------------|
G-4---------3--------|----------------------------|

A----3---3-----|-5--------10--9--5-----|
E-0------------|--------------------7--|
C----7---6-----|-9---------------------|
G--------------|-7---------------------|

A|--------7--7-----7--7--|-12--5--5--11--7-----|
E|-0------0--0-----0--0--|------------------7\-|
C|-----------------------|---------------------|
G|----4---------3--------|---------------------|

A----3----3--3--9--3---|-5--5--5--5-5--5\0--|-3-2--2----------|
E-0--------------------|--------------------|-1-0--0----------|
C----7-----------------|-9--9--9--9-9--9-2--|-5-4--4----------|
G----------------------|------------7--7\0--|-----------------|

 

Comentarios (1)
Debes iniciar sesión para unirte a la discusión
o Registrarse

 

CtVerfinster avatar
This was my first submission, I was testing the function out. I'm not quite sure about the actual tab itself.
26 Jun 2014
Acerca de esta canción

No hay información por esta canción.