Brothers In Arms Tab por Mark Knopfler

tablatura Ukulele sin acordes.

Añadir esta tab a su SongBook
Tablature / ChordsFont size: A- A A+

¿ No sabe cómo leer una tablatura o un acorde ?

curso de ukulele

P   H       H    P       H                       
A|-----------------------------------------------------|
E|-----------------6--------64----4----------------64--|
C|-----3-----3------------------6----3------3----------|
G|-4-6---6-6---6-----4-6--4---------4-6----(-)6--4-----|
H S
A|------------------|
E|---4-64-------4-4-|
C|-6----------------|
G|-----------4-6----|
P P H P H P S
A|------------|-----------|------------|----------------|
E|------------|-----------|----6-------|------------4---|
C|------------|-3-----3---|------------|----------------|
G|-8--6--4-6--|---6-6-----|-6----------|------4-5-------|
P H
A|-----------------------------------------------|
E|---6--------64----4--4---------64----4--4------|
C|----------------6------------------6-------3---|
G|-4---4-6--4---------------6--4------------4-6--|
H
A|--------------------------|
E|-6--------64----4--4------|
C|--------------6-------3---|
G|---4-6--4------------4-6--|
S H SS
A|------------|-------------|------------|-9----22---|
E|---4-6------|--------4----|------------|-----00---|
C|-6------3---|-------------|-4-3----3---|-16----4---|
G|-------4-6--|-3-3-4-3-4-6-|----6--4-6--|-9---0----|
~ H P
A|------------------------------------------------------|
E|---4------4---------------4--------------4-4-6--4-----|
C|-6----6-------6--4----6------6--3-6--6-----------6--4-|
G|-----4--B5--BD----------B5-------4-----B5-------------|
H P H P H P
A|----------------------------------------------------|
E|-----------------4--------64----4--4----------------|
C|-3-6--3-6--3-6------6--3------6---------------3-----|
G|---------------B5-------4---------------4-6-x---6-4-|
S
A|----------------------------------------|-7-6-6-7---|
E|-4--6--4-2-4-4--6---4--6--4-4--6---4-2--|-----------|
C|----------------------------------------|-----------|
G|---9-----------9------9-------9---------|--------6--|

A|-----------------------------------------------------|
E|-----4--------64----4--4-----4----4-4-6--4--4--4-----|
C|-6------6--3------6---------3-6-----------6--6--6--4-|
G|---B5-------4-------------------B5-------------------|
HH P H S
A|----------|--------------|--6------------------------|
E|----------|6-------------|---4-6-----4------4--6-----|
C|-3--------|t-e riff -ere-|---------------------------|
G|--6--6----|-ow to -lay --|-4-----4-4---8--8-------4--|

 

Comentarios (0)
Ningún comentario :(
¿Necesitas ayuda, un consejo para compartir o simplemente quieres hablar sobre esta canción? Comience la discusión

Debes iniciar sesión para unirte a la discusión
o Registrarse

 

Acerca de esta canción

No hay información por esta canción.