La Grange Tab por Zz Top

tablatura Ukulele sin acordes.

Añadir esta tab a su SongBook
Tablature / ChordsFont size: A- A A+

¿ No sabe cómo leer una tablatura o un acorde ?

curso de ukulele

|------------------0---0-----0-------|
|-0-0--0--0--0--0----3----0-----0----|
|------------------------------------|
|-2-2--2--2--2--2---------5-----5b---|

|-0-0--0--0--0--0----------|
|-0-0--0--0--0--0----------|
|--------------------0--2--|
|-2-2--2--2--2--2----------|
|-10---10---10---10------6-----8------| |----10--10---10---10---10---10----10----------|
|-----------------8-----8------8--| |--------------------------------6--8---|
|-12---12---12---12------10-----12------| |----12--12---12---12---12---12----12----------|
|---------------------------------| |--------------------------------8--10---|
~ P
|---------------------------------------------|
|-6----------6--3-6--3----3-------------------|
|----------------------5-----3-------5--3-----|
|----------5---------------------5--------5---|
~ H S ~ H S
|---------------------------------|---------------------------|
|--------------3--6-3-------------|-----------3---6--3--------|
|--5---------5---------5--3--5--3-|---------5-----------5--3--|
|-----5---------------------------|--5------------------------|
|-------------------8h10-----10-\8--6--8--6------|-8/10-----10-\8--6--8--6--|
|-----------------------------------------8--8-|------------------------|
|----------------x-----------------------------|------------------------|
|-5---5---8FB--x----------3--------------------|-------3----------------|
S ~ S S H
|-------------------------|-----------------------------------|----------------------|
|-------------------------|-6--3--6--3--6--3---6--------------|----3--6--------------|
|------------------5--6---|------------------------5---3------|--5-------5--3--5--3--|
|---5---5-------5---------|-----------------------------B--5--|----------------------|
|-----------6-----6--8p6--8--|-8/10------10--------------|-----------------------------------10---|
|-8---8-6h8----8-------------|-------------------------|---------------------------------------|
|----------------------------|-------------------------|---------------------------------------|
|----------------------------|-------3-----5--10---8b---|-5-----5---3--5----8FB---8FB~----3-----|
~ S S S S
|--------------------|---------------------------|--------------------------------|
|--------------------|---3--6---6---6-----3---6--|--6---5--6---6--3---------------|
|-3-----3--3---------|-3---------------5---------|--7---6--7---------5---3--5-----|
|--FB---------5------|---------------------------|----------------------------FB--|
P H S S
|-----------------------------------|-------------------------------|-----------------------|
|--3-----6--3-----3-----------------|---3--6--3--3---------------6--|----3--6--6--6--3---6--|
|--------------5----3----5---5----3-|-5--------------6--3-----------|-----------------------|
|-----5---------------5-------------|----------------------5--5-----|-5---------------------|
S S s S S S
|---------------------------|--------------- tim--)--------------|----------------------------|
|--------------------3---6--|----3--6--3--6--3--6--3--6--3--6----|--3--6--3--6-------------6--|
|------------3----5---------|*-------------1--------------------*|---------------5---3--------|
|-5--5---5-----5------------|*----------------------------------*|---------------------5------|
~ S S S S S
|--------------------------|-------------------------------|---------------------------------|
|-----------3--6--3--6--3--|-6--3--6--3--6---3--6--3--6----|--3--6--3--6--3--6--3--6--3--6---|
|--------------------------|-------------------------------|---------------------------------|
|-5------------------------|-------------------------------|---------------------------------|
S S S S S S ~ H
|--------------------------------|-------------------------------|-----------------|
|--3--6---3--6---3--6---6----3---|-6-----3---6-------------------|--------3--5-----|
|--------------------------------|----5----------5---3-----------|---3-4-----------|
|--------------------------------|------------------------5------|-----------------|
S S S H
|-----------------|---------------|-----------------0--0----------0----|
|---2-3-5-3-5-3-5-|-1-2-5-2-5-2-5-|-0-1-5-1-5-1-5-------------0--------|
|.----------------|---------------|-----------------------0-1---------.|
|.----------------|---------------|---------------------------2-------.|
P H ~
|------------------|-------------------------|----------------------|
|--5-----5-3-5-----|-------------5-----------|----------3-----3-----|
|------------------|-2-----------------------|----------------------|
|-----5------------|--FB------5--------------|----------------------|
~~ ~
|------------7--|----------------7--|---------------------------|
|-3----3--------|-3--3------3-------|-3-------------------------|
|---------------|-------------------|----2-----2--------2-------|
|---------------|-------------------|-----FB------5FB------5FB--|
~ ~
|------------------|--7-------------------|-----------------------|
|--5---------------|-----3----------------|-------5---------------|
|-------------2----|---------2-----2------|-----------------2-----|
|----------5---FB--|----------FB------5FB-|--5FB---------5---FB---|
~ S
|----------------------------|---------------------------------------|
|---------------------5------|------3--5----------3---5---5-----B----|
|--2-------2-----------------|---4-----------------------------------|
|---FB-r5------5FB-r---------|---------------------------------5-----|
S S ~ H
|--------------------|---------------------------|--------------------------|
|--------5-----------|--3------------------------|--5-------3-5-----3--2--5-|
|---------------2-4--|------2------2------2------|--------------------------|
|----5---------------|----------5---FB--------5--|---------------5----------|
S
|-------7----------------|--------------------b--|---------b----------b---|
|---2--------------------|--5-----3--------------|-----5----------5-------|
|-----------2------------|-----4---b--4-2----0---|--2-----0----2-----0----|
|------------FB----5FB---|-----------------------|------------------------|
~
|--------------------------|-----------------------|----------------------|
|--5------5-------------5--|---------------3-------|----------------------|
|------------2-------------|--2------2--------2----|--2----2----2----2----|
|-----5b------FB-r--5b-----|-----5b--------5---FB--|---FB---FB---FB---FB--|
~ H ~
|-------------------------|---------------------7--|---------------------------|
|-------------------------|--5---5-----------------|-----5---5--------5----5---|
|--2----2----2----2-------|------------------------|---------------------------|
|---FB---FB---FB---FB--5--|----------------5-6-----|---------------------------|
~ S H ~ H
|------------------|---------------7-------------|-------------7---------|
|----B-------------|--x--5-------3---------------|-5-------------1--5----|
|------------------|------------------2----2-----|-----------------------|
|---5-------5---5--|---------------------5----5--|-----------------------|
~ S
|--7-------------------5----|--5-------------5----------7---|
|--5--3--------------------|---------------------2-------|
|------------------4---4---|--4--------4---4-----2-------|
|----------------------5---|--5--------5---5---------5---|
S S S
|---7--7-----------------------|--0--9-5--9---5------------|----------------|
|----------5--3----------------|-------------------------|----------------|
|----------------4--3--2-------|-----3-4-3---4----2------|--2-------2-----|
|---5--5------------------5--5-|-----4-5-4---5-------5---|---FB-r5---FB---|

 

Comentarios (0)
Ningún comentario :(
¿Necesitas ayuda, un consejo para compartir o simplemente quieres hablar sobre esta canción? Comience la discusión

Debes iniciar sesión para unirte a la discusión
o Registrarse

 

Acerca de esta canción

No hay información por esta canción.