Golden Ticket Tab por Manchester Orchestra

tablatura Ukulele sin acordes.

ImprimirAñadir esta tab a su SongBook
Tablature / ChordsFont size: A- A A+

¿ No sabe cómo leer una tablatura o un acorde ?

curso de ukulele

# Intro
A|----------------------------|
E|--5-------------------------|
C|----------------------6-----|
G|---------6------------------|

# Main Riff
A|-----------------------------------------------------|
E|--5-----5-----------5-------------------------5--5---|
C|-----------------------------------------------------|
G|-----4-----4--6--4-----4----7--7--6--6--4--4---------|


A|-----------------------------------------------------|
E|--5-----5-----------5-------------------------7--5---|
C|-----------------------------------------------------|
G|-----4-----4--6--4-----4----7--7--6--6--6--7---------|

# Verse

A|--0--4-4---0--5-5-----------2h4------|
E|---0--0--0-----0------2--------------|
C|------------2-----2-61----2----------|
G|----2---2----2---2-----3---2---------|

# Bridge

A|-----77777777---55555555---44444444---55555555--|
E|-----55555555---33333333---22222222-------------|
C|--------------------------------------99999999--|
G|------------------------------------------------|
# x2

# Outro

A|-------77777777----55555555--|
E|-------55555555----33333333--|
D|-----------------------------|
G|-----------------------------|
# x4

 

Comentarios (0)
Ningún comentario :(
¿Necesitas ayuda, un consejo para compartir o simplemente quieres hablar sobre esta canción? Comience la discusión

Debes iniciar sesión para unirte a la discusión
o Registrarse

 

Acerca de esta canción

No hay información por esta canción.