Emily (Riff) Tab por From First To Last

tablatura Ukulele sin acordes.

9.5/10
ImprimirAñadir esta tab a su SongBook

Tablature / Chords (Riff)

Font size: A- A A+

Año:  2005
Key: desconocidotablatura (sin acordes )
# This version has been slightly simplified

A|-------2----------------2--------------2---------------2------------------2------|
E|-----3----3----------3----3---------2----2---------3-----3------------------3----|
C|-4-4--4----------4-4--4---------2-2--2---------0-0---0---------------------------|
G|---------------------------------------------------------------------------------

A|---------2--------------2----------5------5-----5(7)5---3-2---5-3-2-3-2----------|
E|-----3-----3--------2-----2-----2------2-----2--------------3-----------5-7-5----|
C|-4-4---4--------2-2---2----------------------------------------------------------|
G|---------------------------------0------0-----0----------------------------------|

A|----5-----5------5(7)5----10-10-10-9-9-9-10-10-12-12-12-10-10-10-9-9-10----------|
E|-2----2-----2--------------------------------------------------------------------|
C|---------------------------------------------------------------------------------|
G|--0-----0-----0------------------------------------------------------------------|

⇢ ¿No estás contento con esta tab? Ver 3 otra(s) versión(es)

Tab por , 10 jun 2012

Comentarios (0)

Ningún comentario :(
¿Necesitas ayuda, un consejo para compartir o simplemente quieres hablar sobre esta canción? Comience la discusión

Comentar
¡Comparte tus patrones de rasgueo, acordes o consejos para tocar este tab!

Top Tabs & Acordes de From First To Last, ¡no te pierdas estas canciones!

Acerca de esta canción: Emily

No hay información por esta canción.

¿Has versionado a Emily con tu Ukelele? Comparte tu trabajo!
Submit a cover