En Mi Nariz Siempre Es Invierno Tab por Magnolia Y Los No Me Olvides

5 Acordes utilizados en la canción: G#, D#, F#m, Fm#2, C#

Añadir esta tab a su SongBook

Ver esos acordes para el baritono

Transpose chords:
Acordes:
Mantén los accordes en la pantalla mientras te desplazas
Tablature / ChordsFont size: A- A A+

¿ No sabe cómo leer una tablatura o un acorde ?

curso de ukulele

Intro: (tonada de la flauta)

A|-2~~--0-2-3-0~-----0-2-----5--------------------------|
E|-----------------3-----3~----2-----0-2-3~--0-2-3-------|
C|---------------------------------2---------------2~----|
G|-------------------------------------------------------|

A|--------------------0-|-2~~--0-2-3-0~-----0-2-----5-----|
E|-5-3-2-3~----0-2-3---|-----------------3-----3~----2----|
C|------------2---------|----------------------------------|
G|----------------------|----------------------------------|

A|----------------------------------------------------|
E|---0-2-3~--0-2-3-----5-3-2-3~----0--2--3--2--0--2~-|
C|-3---------------3--------------2-------------------|
G|----------------------------------------------------|

G# G# D# D# F#m F#m
El varano daba aqueella sensacion
Fm#2 Fm#2 C# C#
para poder pedirle a ella
G# G# C# C# D# D#
que los dos fueramos uno y sucedio
G# G# D# D# F#m F#m
el otoño fue la cima para mi
Fm#2 Fm#2 C# C# G# G#
nada podia pedir pues yo con ella tenia todo
C# C#
yo era feliz

G# G# D# D# F#m F#m
en invierno fue donde todo termino
Fm#2 Fm#2 C# C#
y asi empezo el dolor pues me quebro
G# G# C# C# D# D#
en 50 pedazos y no los recogio
G# G# D# D# F#m F#m
primavera nos volvemos a encontrar
Fm#2 Fm#2 C# C# G# G#
siempre te veo cuando siento soledad
C# C# D# D#
por que sera?, por que sera?

y yo no lo vi veniiiir Eso M Pasa X Creer en Algo Que
C# C#
No Puede Existir
G# G# D# D# C# C#
Sentía Q Podía Ganar Cualquier Batalla Y Perdí
G# G# D# D# C# C# D# D#
La Primavera Chance Tiene Algo Nuevo Para Mi
C# C#
Mas No Lo Creo Así.

A|-----------------5--9-9---7-7---|--7----------------|
E|-----7-8-5-5---------------------|-----5-5--8-8---|
C|--7---------------------------------|--------------------|

A--------------------------------------|
D--8--7-7---------------------------|
C--------------9-9---7-7---6-7---|

G# G# D# D# F#m F#m
Ya no quiero q sea invierno
Fm#2 Fm#2 C# C# G# G# D# D#
muchos recuerdos, no quiero recordar la indiferencia
G# G# D# D# F#m F#m
Ya no quiero q sea invierno
Fm#2 Fm#2 C# C# G# G# D# D#
muchos recuerdos, no quiero recordar la indiferencia
G# G# D# D# F#m F#m
Ya no quiero q sea invierno
Fm#2 Fm#2 C# C# G# G# D# D#
muchos recuerdos, no quiero recordar la indiferencia

 

Comentarios (0)
Ningún comentario :(
¿Necesitas ayuda, un consejo para compartir o simplemente quieres hablar sobre esta canción? Comience la discusión

Debes iniciar sesión para unirte a la discusión
o Registrarse

 

Acerca de esta canción

No hay información por esta canción.