Dejate Llevar Tab por Lucía Tacchetti

4 Acordes utilizados en la canción: G, Gsus2, D, C

ImprimirAñadir esta tab a su SongBook
Tablature / ChordsFont size: A- A A+

¿ No sabe cómo leer una tablatura o un acorde ?

curso de ukulele

Dejate llevar


Intro: G G - Gsus2 Gsus2 - G G - Gsus2 Gsus2 - D D - C C

Mira al frente, no te sientes, desde abajo no puedes ver
No te quedes, no te entregues, sigue el ritmo, sigue el paso
Dejá fluir
Sin preguntas, sin respuestas, nadie sabe lo que cuesta dejarse llevar
Nadie sabe lo que cuesta

Estribillo: D D - C C - G G - Gsus2 Gsus2 - G G (rasguido)

Compruébalo y verás, es sólo soltar tu sonrisa
Mostrá los dientes y verás
Desvístete de todo, libérate del miedo y verás
Que ya nada es para siempre
Sólo déjate llevar

No esperes que te pase, no esperes lo ideal
Sal de adentro que acá no está nada mal
Lo perfecto es aburrido, bien correcto y sin sentido
Sólo deja fluir

Estribillo:
Compruébalo y verás, es sólo soltar tu sonrisa
Mostrá los dientes y verás
Desvístete de todo, libérate del miedo y verás

Compruébalo y verás, es sólo soltar tu sonrisa
Mostrá los dientes y verás
Desvístete de todo, libérate del miedo y verás
Que ya nada es para siempre
Sólo déjate llevar

G G Gsus2 Gsus2 G G Gsus2 Gsus2
A|--------2---2--------0---0-------2---2--------0---0----|
E|------3---3---3----3---3---3---3---3---3----3---3---3--|
C|2---2------------2-----------2------------2------------|
G|-------------------------------------------------------|


D D C C
A|-----0---0-------0---0---------3---3-------3---3-------|
E|---2---2---2---2---2---2-----0---0---0---0---0---0-----|
C|-2-----------2-------------0-----------0---------------|
G|-------------------------------------------------------|

 

Comentarios (0)
Ningún comentario :(
¿Necesitas ayuda, un consejo para compartir o simplemente quieres hablar sobre esta canción? Comience la discusión

Debes iniciar sesión para unirte a la discusión
o Registrarse

 

Acerca de esta canción

No hay información por esta canción.