Star Shopping (Intro) Tab por LiL PEEP

tablatura Ukulele sin acordes.

ImprimirAñadir esta tab a su SongBook
Tablature / ChordsFont size: A- A A+

¿ No sabe cómo leer una tablatura o un acorde ?

curso de ukulele

A|----9----9----9----9----9--2-9--2-9--2-9--2-9--2-9-------------|
E|--3----3----3----3----3----------------------------------------|
C|---------------------------------------------------------------|
G|---------------------------------------------------------------|

A|--0----0----0----0----0----0----0----0-------------------------|
E|----2----2----2----2----2----2----2-------2----2---------------|
C|----------------------------------------2----2----2------------|
G|---------------------------------------------------------------|

 

Comentarios (3)
Debes iniciar sesión para unirte a la discusión
o Registrarse

 

vaporwaver avatar
good my hand is a but small tho but it sounds pretty good
07 Sep 2019
 avatar
flag for (ISO2)
this doesn’t even sound right lmao ?
26 May 2019
Biancaweiser avatar
flag for US(ISO2) (mcminnville)
who's fucking hands are long enough for that???
29 Mar 2019
Acerca de esta canción

No hay información por esta canción.