Whole Lotta Love (Riff) Tab por Led Zeppelin

tablatura Ukulele sin acordes.

Añadir esta tab a su SongBook
Tablature / ChordsFont size: A- A A+

¿ No sabe cómo leer una tablatura o un acorde ?

curso de ukulele

# Tablature Legend:
# -----------------
# b - Bend

A||----------------1b----1b--|
E||--------------------------|
C||--------------------------|
G||--------------0-----0-----|


||--3-x-x-x-3-x-x-x-3-x-x-x-3-x-x-x-|
||o-3-x-x-x-3-x-x-x-3-x-x-x-3-x-x-x-|
||o-0-x-x-x-0-x-x-x-0-x-x-x-0-x-x-x-|
||--0-x-x-x-0-x-x-x-0-x-x-x-0-x-x-x-|

# (repeat ad
# nauseum)
|--3-x-x-x-3-x-x-3-3----1b----1b--||
|--3-x-x-x-3-x-x-3-3-------------o||
|--0-x-x-x-0-x-x-0-0-------------o||
|--0-x-x-x-0-x-x-0-0--0-----0-----||

 

Comentarios (4)
Debes iniciar sesión para unirte a la discusión
o Registrarse

 

yeet420 avatar
nice tab
24 Jun 2018
Olly456 avatar
flag for CA(ISO2) (Dundas)
Thanks a lot!
14 May 2016
ramses avatar
ça sonne pas bien
19 Jul 2010
Koaukulele avatar
Good tab.
01 Jul 2010
Acerca de esta canción

No hay información por esta canción.