Walk With Me In Hell (Intro) Tab por Lamb Of God

tablatura Ukulele sin acordes.

Añadir esta tab a su SongBook
Tablature / ChordsFont size: A- A A+

¿ No sabe cómo leer una tablatura o un acorde ?

curso de ukulele

# Tuning: G G C C E E A A with low G G



A|--------------------------------------|
E|--------------------------------------|
C|---9-8-----------9-8------------9-8---| # X3
G|-7-----7-9-10--7-----7-9-10---7-----9-|

A|--------------------------------------|
E|----------------------------0---------|
C|---9-8-----------9-8------------7-----|
G|-7-----7-9-10--7-----7-9-10---9---9---|

A|---2-1---------2-1---------2-1--------|
E|--------------------------------------|
C|-------2-4-5-------2-4-5-------5------| # X3
G|-3-----------3-----------3------------|

A|---2-1---------2-1---------2-1------------|
E|------------------------------------------|
C|-------2-4-5-------2-4-5-------2-4-5-2-4-5|
G|-3-----------3-----------3----------------|


# Enjoy :-)

 

Comentarios (0)
Ningún comentario :(
¿Necesitas ayuda, un consejo para compartir o simplemente quieres hablar sobre esta canción? Comience la discusión

Debes iniciar sesión para unirte a la discusión
o Registrarse

 

Acerca de esta canción

No hay información por esta canción.