Mettanpeiton Valtiaalle Tab por Korpiklaani

tablatura Ukulele sin acordes.

Añadir esta tab a su SongBook
Tablature / ChordsFont size: A- A A+

¿ No sabe cómo leer una tablatura o un acorde ?

curso de ukulele

# Acoustic part

A|---------5-------------5-----------|-5H6P5--3--1--3P1--0--------|

E|-3---6-------6----6--------6---(3x)|----------------------1/3---|

C|-----------------5-5---------------|----------------------------|

G|-----------------------------------|----------------------------|


# Background


A|-----------------|---------------|--------------------------------|

E|-----------------|---------------|--------------------------------|

C|-----------9--5--|---------------|-----------9--5---7--10-9P7--5/7|

G|-7-----3---------|-7-----3--2~~--|-7-----3------------------------|


# First heavy part

Gsus2 Gsus2 F F Gsus2 Gsus2 Dm Dm

A|-0-00-0-0-00--0-00-0-0-00--0-00-0-0-00--0-00-0-0-00---------------------|

E|-3-33-3-3-33--1-11-1-1-11--3-33-3-3-33--1-11-1-1-11---------------------|

C|-2-22-2-2-22--0-00-0-0-00--2-22-2-2-22--2-22-2-2-22---------------------|

G|-0-00-0-0-00--2-22-2-2-22--0-00-0-0-00--2-22-2-2-22---------------------|


Gsus2 Gsus2 F F

A|-0-00-0-0-00--0-00-0-0-00---------------------------------------|

E|-3-33-3-3-33--1-11-1-1-11---------------------------------------|

C|-2-22-2-2-22--0-00-0-0-00--7--10-9P7--5/7-----------------------|

G|-0-00-0-0-00--2-22-2-2-22---------------------------------------|


# Second heavy part

# in progress

 

Comentarios (0)
Ningún comentario :(
¿Necesitas ayuda, un consejo para compartir o simplemente quieres hablar sobre esta canción? Comience la discusión

Debes iniciar sesión para unirte a la discusión
o Registrarse

 

Acerca de esta canción

No hay información por esta canción.