Keelhauled Tab por Alestorm

8 Acordes utilizados en la canción: Bbm, Db, Ab, Gb, F, Eb, Bb, A

¡Califica la canción!
ImprimirAñadir esta tab a su SongBook

Tablature / Chords (Canción entera)

Font size: A- A A+

Artista: 
Año:  2009
Dificultad: 
5.25
(Intermedio)
Key: desconocidoAcordes y tablaturas
Intros
Accordion part
A|----8---8----8---8----8---8----8---8----8---8--6-|
E|----9---9----9---9----9---9----9---9----9---9--8-|
C|-10---5---10---5---10---5---10---5---10---5------|
G|-------------------------------------------------|
Violin part
A|----8-8--6-8-9-8-6-8-8-6------6-8-6---6----------|
E|-6------------------------9-9-------9---8-8-9-8--|
C|-------------------------------------------------|
G|-------------------------------------------------|

A|----8-8--6-8-9-8-6-8-8-6------6-8-6-----------------|
E|-6------------------------9-9-------9-9--9-8-6-4-6--|
C|----------------------------------------------------|
G|----------------------------------------------------|

Verse 1
Bbm Bbm
My friends I stand before you
Db Db
To tell a truth most dire
Ab Ab Gb Gb
There lurks a traitor in our midsts
F F
Who has invoked the captain's ire
Bbm Bbm
He don't deserve no mercy
Db Db
We ought to shoot him with a gun
Ab Ab Gb Gb
But I am not an evil man
F F
So first let's have a little fun


Pre chorus 1
Bbm Bbm Ab Ab
We'll tie that scoundrel to a rope and throw him overboard
Gb Gb
Drag him underneath the ship
F F
A A terrifying deadly trip


Chorus x2
Bbm Bbm Gb Gb
Keelhaul that filthy landlubber
Ab Ab Db Db
Send him down to the depths below
Bbm Bbm Gb Gb
Make that bastard walk the plank
Db Db Eb Eb Bb Bb A A Bb Bb
With a bottle of rum and a yo ho ho


Violin intro


Verse 2
Bbm Bbm
I will not say what he has done
Db Db
His sins are far too grave to tell
Ab Ab Gb Gb
It's not my place to judge a man
F F
But for them he will burn in hell
Bbm Bbm
The sharks will dine upon his flesh
Db Db
And Davy Jones will have his soul
Ab Ab Gb Gb
Take his money and his hat
F F
He won't need them where he's gonna go


Pre chorus 2
Bbm Bbm Ab Ab
But first lets tie him to a rope and throw him overboard
Gb Gb
Drag him underneath the ship
F F
A A terrifying deadly trip


Chorus 2x


Violin intro


Pre chorus 1


Chorus 2x


Outro
A|---6-8-6---6-------------|
E|-9-------9----9-8-6-5-6--|
C|-------------------------|
G|-------------------------|

Tab por , 26 abr 2016

Comentarios (0)

Ningún comentario :(
¿Necesitas ayuda, un consejo para compartir o simplemente quieres hablar sobre esta canción? Comience la discusión

Comentar
¡Comparte tus patrones de rasgueo, acordes o consejos para tocar este tab!

Acerca de esta canción: Keelhauled

No hay información por esta canción.

¿Has versionado a Keelhauled con tu Ukelele? Comparte tu trabajo!
Submit a cover