Zelda's Lullaby Tab por Koji Kondo

1 Acordes utilizados en la canción :

Añadir esta tab a su SongBook

Ver esos acordes para el baritono

Transpose chords:
Tablature / ChordsFont size: A- A A+

¿ No sabe cómo leer una tablatura o un acorde ?

curso de ukulele


A|------------------------------5--3-------------
E|-0--3--------0--3--------0--3------3--1-0------
C|------2--0-2------2--0-2------------------2----
G|-----------------------------------------------

A|--------------------------5--3-10--------------
E|-0--3--------0--3----0--3----------------------
C|------2--0-2------2----------------------------
G|-----------------------------------------------

A|-10--8-7-8-7-3--8-7-5-7-5-0--10-8-7-8-7-3-8-15-
E|-----------------------------------------------
C|-----------------------------------------------
G|-----------------------------------------------

 

Comentarios (1)
Debes iniciar sesión para unirte a la discusión
o Registrarse

 

Swagmaster2 avatar
Better with A2, A5, A0, E3, A0 and repeat
11 Apr 2019
Acerca de esta canción

No hay información por esta canción.