Lupang Hinirang Tab por Julian Felipe

tablatura Ukulele sin acordes.

Añadir esta tab a su SongBook
Tablature / ChordsFont size: A- A A+

¿ No sabe cómo leer una tablatura o un acorde ?

curso de ukulele

Bayang magiliw perlas ng silanganan
A|-----3----2----5----3--------5-----7----8----7----5-----7-----3-|
E|---------------------------3------------------------------------|

Alab ng puso sa dibdib mo'y buhay
A|-----3----2----5----3---------5----7-----8----7----5-----3------|
E|--------------------------3-------------------------------------|

Lupang Hinirang, duyan ka ng magiting
A|-----3----2----5----3--------5-----7----8----7----5-----7-----3-|
E|---------------------------3------------------------------------|

Sa manlulupig, di ka pasisiil
A|-----3----2----5----3---------5----7----8----7----5-----3-------|
E|--------------------------3-------------------------------------|

Sa dagat at bundok sa simoy at
A|-----3----2----3----5----5------------------5-----5-------------|
E|----------------------------------3----3-----------------3----3-|

Sa langit mong bughaw
A|-----7----8----10----12------10---------------------------------|
E|----------------------------------------------------------------|

May dilag ang tula at awit sa
A|-----3----2----3----5----5------------------5-----5-------------|
E|----------------------------------3----3-----------------3----3-|

Paglaying minamahal
A|-----7-----8-----7-----5-----7-----5-------3--------------------|
E|----------------------------------------------------------------|

Ang kislap ng watawat mo'y tagumpay
A|-----3----2----3----5----5------------------5-----5-------------|
E|----------------------------------3----3-----------------3----3-|

Na nagnininging
A|-----7----8----10----12------10---------------------------------|
E|----------------------------------------------------------------|


Ang bituin at araw niya kailan pa
A|-----3----2----3----5----5------------------5-----5-------------|
E|----------------------------------3----3-----------------3----3-|

Ma'y Di Magdidilim
A|-----7-----8-----7-----5-----7-----5-------3--------------------|
E|----------------------------------------------------------------|

Lupang ng araw ng luwalhati't pagsinta
A|-----3----2----3----8----8-----10----10---12--10---8---10---12--|
E|----------------------------------------------------------------|

Buhay ay langit sa piling mo
A|-----13----12----10----12------8-----10----7----7----8----------|
E|----------------------------------------------------------------|

Aming ligaya na pag may mang-aapi
A|-----3----2----3----8----8-----10----10---12--10---8---10---12--|
E|----------------------------------------------------------------|

Ang mamatay ng dahil sa iyo
A|-----13----12----10----12------8-----10----7----7----8----------|
E|----------------------------------------------------------------|

 

Comentarios (3)
Debes iniciar sesión para unirte a la discusión
o Registrarse

 

MuayThaiMX5 avatar
thank you so much
14 Mar 2019
turbo350z avatar
Absolutely wonderful, my friend. Mabuhay!
14 Mar 2019
asgardianuke avatar
Tab is played only on the first 2 strings (starting from the bottom), and is easy to play and learn. I did add lyrics but I was too lazy to fully match them ¯\_(ツ)_/¯, you'll figure it out if you've heard the tune and know the song :). Ty!
07 Mar 2019
Acerca de esta canción

No hay información por esta canción.