For The Dancing And The Dreaming -intro- (Intro) Tab por John Powell

tablatura Ukulele sin acordes.

ImprimirAñadir esta tab a su SongBook
Tablature / ChordsFont size: A- A A+

¿ No sabe cómo leer una tablatura o un acorde ?

curso de ukulele

A|--------------5--------------5----3-----|--------------5--------------5-------3|
E|---------0---------0----3--------------0|---------0---------0----3-------------|
C|----------------------------------------|--------------------------------------|
G|----2-----------------------------------|----2---------------------------------|

A|--------------5--------------5----3-----|--------5----3----5---------3---------|
E|---------0---------0----3--------------0|-----------------------0---------0----|
C|----------------------------------------|--------------------------------------|
G|----2-----------------------------------|---------------------------------2----|

 

Comentarios (2)
Debes iniciar sesión para unirte a la discusión
o Registrarse

 

Cowalter avatar
flag for US(ISO2) (Gig harbor)
This seems wrong. Like really wrong. I was assuming this was the whistle intro to the song but maybe I'm wrong because it sounds nothing like it
24 Mar 2017
Cowalter avatar
flag for US(ISO2) (Gig harbor)
This seems wrong. Like really wrong. I was assuming this was the whistle intro to the song but maybe I'm wrong because it sounds nothing like it
24 Mar 2017
Acerca de esta canción

No hay información por esta canción.