Prelude (Intro) Tab por Bach, Johann Sebastian

tablatura Ukulele sin acordes.

ImprimirAñadir esta tab a su SongBook
Tablature / ChordsFont size: A- A A+

¿ No sabe cómo leer una tablatura o un acorde ?

curso de ukulele

A|---7-5-7-7------7-5-7-7-----0-8-7-8-0-8-0----0-8-7-8-0-8-0-|
E|--3-----3-3----3-----3-3-----------------------------------|
C|-0------------0------------0----------------0--------------|
G|-----------------------------------------------------------|



A|---8-7-8-8------8-7-8-8------7-5-7-7------7-5-7-7-------|
E|--7-----7-7----7-----7-7----8-----8-8----8-----8-7------|
C|-0------------0------------0------------0---------------|
G|--------------------------------------------------------|



A|--0-7-5-7-----0------------------------------------------------10-|
E|---------8-7-8-8-7-0---0-8-10-8-10-8-10-8-8-10-8-10-8-10-8-7-10---|
C|-0------------------7-6-6----------------6------------------------|
G|------------------------------------------------------------------|

 

Comentarios (1)
Debes iniciar sesión para unirte a la discusión
o Registrarse

 

eleqtr avatar
that's cool, could you make it in the whole ?
12 Nov 2020
Acerca de esta canción

No hay información por esta canción.