Hear You Me Tab por Jimmy Eat World

tablatura Ukulele sin acordes.

ImprimirAñadir esta tab a su SongBook
Tablature / ChordsFont size: A- A A+

¿ No sabe cómo leer una tablatura o un acorde ?

curso de ukulele

|---2-2-2-2-2---2-2-2-2-2---2-2-2-2-2---2-2-2-2-2-|
|---3-3-3-3-3---3-3-3-3-3---3-3-3-3-3---3-3-3-3-3-|
|-2-2-2-2-2-2-2-2-2-2-2-2-2-2-2-2-2-2-2-2-2-2-2-2-|
|---0-0-0-0-0---0-0-0-0-0---0-0-0-0-0---0-0-0-0-0-|

|---0-0-0-0-0---0-0-0-0-0---0-0-0-0-0---0-0-0-0-0-|
|---3-3-3-3-3---3-3-3-3-3---3-3-3-3-3---3-3-3-3-3-|
|-2-2-2-2-2-2-2-2-2-2-2-2-2-2-2-2-2-2-2-2-2-2-2-2-|
|---0-0-0-0-0---0-0-0-0-0---0-0-0-0-0---0-0-0-0-0-|

|---0-0-0-0-0---0-0-0-0-0---0-0-0-0-0---0-0-0-0-0-|
|---3-3-3-3-3---3-3-3-3-3---3-3-3-3-3---3-3-3-3-3-|
|-4-4-4-4-4-4-4-4-4-4-4-4-4-4-4-4-4-4-4-4-4-4-4-4-|
|---0-0-0-0-0---0-0-0-0-0---0-0-0-0-0---0-0-0-0-0-|

|---0-0-0-0-0---0-0-0-0-0---0-0-0-0-0---0-0-0-0-0-|
|---0-0-0-0-0---0-0-0-0-0---0-0-0-0-0---0-0-0-0-0-|
|-0-0-0-0-0-0-0-0-0-0-0-0-0-0-0-0-0-0-0-0-0-0-0-0-|
|---0-0-0-0-0---0-0-0-0-0---0-0-0-0-0---0-0-0-0-0-|

chorus/solo:
|-2-----2-2---0-----0-0-----3-----3-3-3-3-----3-3-|
|-3-----3-3---2-----2-2-----0-----0-0-0-0-----0-0-|
|-2-----2-2---2-----2-2-----0-----0-0-0-0-----0-0-|
|-0-----0-0---2-----2-2-----0-----0-0-0-0-----0-0-|

|-2-----2-2---0-----0-0-----3-----3-3-3-3-----3-3-|
|-3-----3-3---2-----2-2-----0-----0-0-0-0-----0-0-|
|-2-----2-2---2-----2-2-----0-----0-0-0-0-----0-0-|
|-0-----0-0---2-----2-2-----0-----0-0-0-0-----0-0-|

|-2-----2-2---0-----0-0---0-----0-0-0-3-----3-3-3-|
|-3-----3-3---2-----2-2---0-----0-0-0-0-----0-0-0-|
|-2-----2-2---2-----2-2---0-----0-0-0-0-----0-0-0-|
|-0-----0-0---2-----2-2---2-----2-2-2-0-----0-0-0-|

|-2-----2-2---0-----0-0-----3-----3-3-3-3-----3-3-|
|-3-----3-3---2-----2-2-----0-----0-0-0-0-----0-0-|
|-2-----2-2---2-----2-2-----0-----0-0-0-0-----0-0-|
|-0-----0-0---2-----2-2-----0-----0-0-0-0-----0-0-|

bridge:
|---2-2-2-2-2---2-2-2-2-2---2-2-2-2-2---2-2-2-2-2-|
|---3-3-3-3-3---3-3-3-3-3---3-3-3-3-3---3-3-3-3-3-|
|-4-4-4-4-4-4-4-4-4-4-4-4-4-4-4-4-4-4-4-4-4-4-4-4-|
|---0-0-0-0-0---0-0-0-0-0---0-0-0-0-0---0-0-0-0-0-|

|---3-3-3-3-3---3-3-3-3-3---3-3-3-3-3---3-3-3-3-3-|
|---0-0-0-0-0---0-0-0-0-0---0-0-0-0-0---0-0-0-0-0-|
|-0-0-0-0-0-0-0-0-0-0-0-0-0-0-0-0-0-0-0-0-0-0-0-0-|
|---0-0-0-0-0---0-0-0-0-0---0-0-0-0-0---0-0-0-0-0-|

|---2-2-2-2-2---2-2-2-2-2---2-2-2-2-2---0-0-0-0-0-|
|---3-3-3-3-3---3-3-3-3-3---3-3-3-3-3---2-2-2-2-2-|
|-4-4-4-4-4-4-4-4-4-4-4-4-4-4-4-4-4-4-2-2-2-2-2-2-|
|---0-0-0-0-0---0-0-0-0-0---0-0-0-0-0---2-2-2-2-2-|

|---3-3-3-3-3---3-3-3-3-3---3-3-3-3-3---3-3-3-3-3-|
|---0-0-0-0-0---0-0-0-0-0---0-0-0-0-0---0-0-0-0-0-|
|-0-0-0-0-0-0-0-0-0-0-0-0-0-0-0-0-0-0-0-0-0-0-0-0-|
|---0-0-0-0-0---0-0-0-0-0---0-0-0-0-0---0-0-0-0-0-|

 

Comentarios (0)
Ningún comentario :(
¿Necesitas ayuda, un consejo para compartir o simplemente quieres hablar sobre esta canción? Comience la discusión

Debes iniciar sesión para unirte a la discusión
o Registrarse

 

Acerca de esta canción

No hay información por esta canción.