Happy Birthday Tab por Humans

1 Acordes utilizados en la canción :

Añadir esta tab a su SongBook

Ver esos acordes para el baritono

Transpose chords:
Tablature / ChordsFont size: A- A A+

¿ No sabe cómo leer una tablatura o un acorde ?

curso de ukulele


A|----------------------------------------|
E|----------------------------------------|
C|---0--0-2-0----5-4---------------------|
G|----------------------------------------|



A|----------------------------------------|
E|----------------------------------------|
C|---0--0-2-0----7-5--------------------|
G|----------------------------------------|



A|----------------------------------------|
E|----------------------------------------|
C|---0--0---12--9--5-4-2----------------|
G|----------------------------------------|



A|----------------------------------------|
E|----------------------------------------|
C|---12--12---9---5--7--5---------------|
G|----------------------------------------|

 

Comentarios (0)
Ningún comentario :(
¿Necesitas ayuda, un consejo para compartir o simplemente quieres hablar sobre esta canción? Comience la discusión

Debes iniciar sesión para unirte a la discusión
o Registrarse

 

Acerca de esta canción

No hay información por esta canción.