Somebody That I Used To Know Tab por Gotye

tablatura Ukulele sin acordes.

6/10
ImprimirAñadir esta tab a su SongBook

Tablature / Chords (

Font size: A- A A+

Artista: 
Album: 
Año:  2012
Key: desconocidotablatura (sin acordes )
A---------------0--1--3--0-----------------------------
E------------------------------1--1--0--0--------------
C---0--0-----------------------------------2--2----0---
G---------0--0--------------0--------------------------



A---------------0--1--3--0----------------------
E----------------------------------------0------
C---0--0-------------------------2--2-------2---
G---------0--0--------------0-------------------

⇢ ¿No estás contento con esta tab? Ver 15 otra(s) versión(es)

Tab por , 13 ene 2012

Comentarios (0)

Ningún comentario :(
¿Necesitas ayuda, un consejo para compartir o simplemente quieres hablar sobre esta canción? Comience la discusión

Comentar
¡Comparte tus patrones de rasgueo, acordes o consejos para tocar este tab!

Top Tabs & Acordes de Gotye, ¡no te pierdas estas canciones!

Acerca de esta canción: Somebody That I Used To Know

No hay información por esta canción.

¿Has versionado a Somebody That I Used To Know con tu Ukelele? Comparte tu trabajo!
Submit a cover