Les Copains D'abord (Intro) Tab por Georges Brassens

tablatura Ukulele sin acordes.

ImprimirAñadir esta tab a su SongBook
Tablature / ChordsFont size: A- A A+

¿ No sabe cómo leer una tablatura o un acorde ?

curso de ukulele

A|-----0--1--2--0-----0--2----0-----0--7--9--|
E|--3--------------3-------------3-----------|
C|-------------------------------------------|
G|-------------------------------------------|



A|--7--5--2--0--0--0----0-----2--0---------|
E|--------------------0----3--------3------|
C|-------------------------------------1---|
G|-----------------------------------------|



A|-----0--2-------------------------------|
E|--3--------3--3--2--3--0----3--2--0-----|
C|----------------------------------------|
G|----------------------------------------|



A|-----------------2--0-------------------|
E|--3--3--3--0-----------0--2--3----------|
C|--------------1-------------------------|
G|----------------------------------------|

 

Comentarios (3)
Debes iniciar sesión para unirte a la discusión
o Registrarse

 

Louka07 avatar
flag for FR(ISO2) (Privas)
It's not really perfect, Somes notes missed.
23 Feb 2020
Tomijoker avatar
4 mesure me parait bizarre
02 Mar 2018
Banditos29 avatar
flag for PF(ISO2) (Tahiti)
L’air y est au départ, mais seulement les premières notes
02 Nov 2017
Acerca de esta canción

No hay información por esta canción.