One Thing Tab por Finger Eleven

tablatura Ukulele sin acordes.

Añadir esta tab a su SongBook
Tablature / ChordsFont size: A- A A+

¿ No sabe cómo leer una tablatura o un acorde ?

curso de ukulele

# Note that this tab requires a(n) ukulele with at least 16 
# frets to play. If your ukulele only has 12, you can check out
# my 12 fret version of the tab, also here on Ukulele-Tabs.com.

# Also, note that the Ab Ab chord I use in this tab (A A:3, E E:4, C C:3,
# G G:1) is a little different than the one listed above but
# either is acceptable and I encourage you to use whichever one
# you prefer.

A||--11-------------11---------|--8-------------8---------|
E||o-------11-----------11-----|-------11----------11-----|
C||o--8--------8------------8--|--8--------8-----------8--|
G||----------------------------|--------------------------|

# (6x)
|--16--------------16----------|--11----------------||
|--------13------------13------|-------------------o||
|--15--------15------------15--|---8---------------o||
|------------------------------|--------------------||


||--3------3--3--3--3----|----3--3--3--3----3--3--|
||o-4------4--4--4--4----|----4--4--4--4----4--4--|
||o-3------3--3--3--3----|----3--3--3--3----3--3--|
||--1------1--1--1--1----|----1--1--1--1----1--1--|


|--3------3--3--3--3----|----3--3--3--3----3--3--|
|--4------4--4--4--4----|----4--4--4--4----4--4--|
|--3------3--3--3--3----|----3--3--3--3----3--3--|
|--1------1--1--1--1----|----1--1--1--1----1--1--|


|--4------4--4--4--4----|----------4----4--4--|
|--1------1--1--1--1----|----------1----1--1--|
|--1------1--1--1--1----|----------1----1--1--|
|--1------1--1--1--1----|----------1----1--1--|

# (2x)
|--4------4--4--4--4----|-------4--4--4----4--4--||
|--1------1--1--1--1----|-------1--1--1----1--1-o||
|--1------1--1--1--1----|-------1--1--1----1--1-o||
|--1------1--1--1--1----|-------1--1--1----1--1--||


||--11-------------11---------|--8-------------8---------|
||o-------11-----------11-----|-------11----------11-----|
||o--8--------8------------8--|--8--------8-----------8--|
||----------------------------|--------------------------|

# (2x)
|--16--------------16----------|--11----------------||
|--------13------------13------|-------------------o||
|--15--------15------------15--|---8---------------o||
|------------------------------|--------------------||


||--3------3--3--3--3----|----3--3--3--3----3--3--|
||o-4------4--4--4--4----|----4--4--4--4----4--4--|
||o-3------3--3--3--3----|----3--3--3--3----3--3--|
||--1------1--1--1--1----|----1--1--1--1----1--1--|


|--3------3--3--3--3----|----3--3--3--3----3--3--|
|--4------4--4--4--4----|----4--4--4--4----4--4--|
|--3------3--3--3--3----|----3--3--3--3----3--3--|
|--1------1--1--1--1----|----1--1--1--1----1--1--|


|--4------4--4--4--4----|----------4----4--4--|
|--1------1--1--1--1----|----------1----1--1--|
|--1------1--1--1--1----|----------1----1--1--|
|--1------1--1--1--1----|----------1----1--1--|

# (2x)
|--4------4--4--4--4----|-------4--4--4----4--4--||
|--1------1--1--1--1----|-------1--1--1----1--1-o||
|--1------1--1--1--1----|-------1--1--1----1--1-o||
|--1------1--1--1--1----|-------1--1--1----1--1--||


||--11-------------11---------|--8-------------8---------|
||o-------11-----------11-----|-------11----------11-----|
||o--8--------8------------8--|--8--------8-----------8--|
||----------------------------|--------------------------|

# (4x)
|--16--------------16----------|--11----------------||
|--------13------------13------|-------------------o||
|--15--------15------------15--|---8---------------o||
|------------------------------|--------------------||


||--3------3--3--3--3----|----3--3--3--3----3--3--|
||o-4------4--4--4--4----|----4--4--4--4----4--4--|
||o-3------3--3--3--3----|----3--3--3--3----3--3--|
||--1------1--1--1--1----|----1--1--1--1----1--1--|


|--3------3--3--3--3----|----3--3--3--3----3--3--|
|--4------4--4--4--4----|----4--4--4--4----4--4--|
|--3------3--3--3--3----|----3--3--3--3----3--3--|
|--1------1--1--1--1----|----1--1--1--1----1--1--|


|--4------4--4--4--4----|----------4----4--4--|
|--1------1--1--1--1----|----------1----1--1--|
|--1------1--1--1--1----|----------1----1--1--|
|--1------1--1--1--1----|----------1----1--1--|

# (3x)
|--4------4--4--4--4----|-------4--4--4----4--4--||
|--1------1--1--1--1----|-------1--1--1----1--1-o||
|--1------1--1--1--1----|-------1--1--1----1--1-o||
|--1------1--1--1--1----|-------1--1--1----1--1--||

 

Comentarios (0)
Ningún comentario :(
¿Necesitas ayuda, un consejo para compartir o simplemente quieres hablar sobre esta canción? Comience la discusión

Debes iniciar sesión para unirte a la discusión
o Registrarse

 

Acerca de esta canción

No hay información por esta canción.