One Thing Tab por Finger Eleven

tablatura Ukulele sin acordes.

Añadir esta tab a su SongBook
Tablature / ChordsFont size: A- A A+

¿ No sabe cómo leer una tablatura o un acorde ?

curso de ukulele

NOTE 1: Not for begginers. I can barely take this up to tempo, and I have been playing for a few years now. Be warned! Its gonna take  2 or 3 fingers playing at once for this bad boy.

NOTE 2: This is a converted tab from ufg8r on Ultimate Guitar's website. All credit goes to him and this website for their converter.

A||---5-------5-----2-------2-----|-----5------5---5---------||
E||-------------------------------|--3-------3---------------||
C||*--4----2------2-4----2------2-|--4-------------4--------*||
G||*-----2------2------0------0---|-------0------0----------*||
(x3)

---5-------5-----2-------2-----|-----5------5---5---------||
-------------------------------|--3-------3---------------||
*--4----2------2-4----2------2-|--4-------------4--------*||
*-----2------2------0------0---|-------0------0----------*||
(x4)
---5--5-5---5--5--5-5---5--|--5--5-5---L--5--5-5---5--|--5---5---5--------5--|
---------------------------|--------------------------|----------------------|
*--4--4-4---4--4--4-4---4--|--4--4-4---L--4--4-4---4--|--4---4---4--------4--|
*--2--2-2---2--2--2-2---2--|--2--2-2---L--2--2-2---2--|--2---2---2--------2--|

--5--5-5---5------5-5----||
-------------------------||
--4--4-4---4------4-4---*||
--2--2-2---2------2-2---*||

---5-------5-----2-------2-----|-----5------5---5---------||
-------------------------------|--3-------3---------------||
*--4----2------2-4----2------2-|--4-------------4--------*||
*-----2------2------0------0---|-------0------0----------*||
(x4)

---5--5-5---5--5--5-5---5--|--5--5-5---L--5--5-5---5--|--5---5---5--------5--|
---------------------------|--------------------------|----------------------|
*--4--4-4---4--4--4-4---4--|--4--4-4---L--4--4-4---4--|--4---4---4--------4--|
*--2--2-2---2--2--2-2---2--|--2--2-2---L--2--2-2---2--|--2---2---2--------2--|

--5--5-5---5------5-5----||
-------------------------||
--4--4-4---4------4-4---*||
--2--2-2---2------2-2---*||

--5-------5-----2-------2-----|-----5------5---5--------||
------------------------------|--3-------3--------------||
--4----2------2-4----2------2-|--4-------------4--------||
-----2------2------0------0---|-------0------0----------||

--5-------5-----2-------2-----|-----5------5---5--------||
------------------------------|--3-------3--------------||
--4----2------2-4----2------2-|--4-------------4--------||
-----2------2------0------0---|-------0------0----------||

---5--5-5---5--5--5-5---5--|--5--5-5---L--5--5-5---5--|--5---5---5--------5--|
---------------------------|--------------------------|----------------------|
*--4--4-4---4--4--4-4---4--|--4--4-4---L--4--4-4---4--|--4---4---4--------4--|
*--2--2-2---2--2--2-2---2--|--2--2-2---L--2--2-2---2--|--2---2---2--------2--|

--5--5-5---5------5-5----------------||
-------------------------------------||
--4--4-4---4------4-4---------------*||
--2--2-2---2------2-2---------------*||
(x3 and fade)

 

Comentarios (3)
Debes iniciar sesión para unirte a la discusión
o Registrarse

 

cwmt3 avatar
looks and sounds good
01 Apr 2012
Benpaco avatar
flag for US(ISO2) (California)
Thanks kiny bro. Its nice to hear it came out alright. Its tough to play, but I'm glad you could handle it.
16 Jan 2012
kina bram avatar
flag for US(ISO2) (Phoenix)
pretty good tab benny paco
15 Jan 2012
Acerca de esta canción

No hay información por esta canción.