Come What May (Intro) Tab por Ewan McGregor and Nicole Kidman

tablatura Ukulele sin acordes.

Añadir esta tab a su SongBook
Tablature / ChordsFont size: A- A A+

¿ No sabe cómo leer una tablatura o un acorde ?

curso de ukulele

a------3-----3--2---3-2---3--0---3-0---3--0---3-0---3----------------------|
E--------------------------------------------------------------------------|
d--0-----0-----------------------------------------------------------------|
g----0-----0------0-----0------0-----0------0-----0------------------------|

a------3-------3---2---3---3---3-------3-------3-------3---2----3----0----3-|
E------3-------3-------3---2---2---1---3---1---3-------3--------3---------3-|
d--0-------0---------------------------------------0------------------------|
g----0---0---0---0---0---0---0---0---0---0---0---0---0---0---0-----0---0----|

a----0---3-------3---3---3-------3-------3-------3---2---3---0---3---0---3-|
E--------3-------3---2---2---1---3---1---3-------3-------3-------3-------3-|
d------------2-------------------------------0-----------------------------|
g--0---0---0---0---0---0---0---0---0---0---0---0---0---0---0---0---0---0---|

a---0---3---3---3-------3-------3-------3---2---3---0---3---0---3-------3---|
E-------3---2---2---1---3---1---3-------0-------0-------0-------0-------2---|
d-----------------------------------0-------------------------------2-------|
g-0---0---0---0---0---0---0---0---0---0---0---0---0---0---0---0---0---0---0-|

a-3---3---3------------------------3-------3-------7-------5-------3-------|
E-2---2---3------------------------0-------0-------0-------0-------0-------|
d------------------------------0-------0-------4-------2-------0-----------|
g---0---0------------------------0---0---0---0---0---0---0---0---0---0-----|
S S
a--2--2-3--0---3---0---3---0---3---2--2-3--0---3---0---3---0---3-------3---|
E------0-------0-------0-------0-------0-------0-------0-------0---0---0-0-|
d--------------------------------------------------------------------------|
g----0---0---0---0---0---0---0---0---0---0---0---0---0---0---0---0---0-----|

a-----3-------3-------7-------5-------5------------------------------------|
E-----0-------0-------0-------0-------0------------------------------------|
d-2-0-----0-------4-------2-------0----------------------------------------|
g-------0---0---0---0---0---0---0---0--------------------------------------|

 

Comentarios (0)
Ningún comentario :(
¿Necesitas ayuda, un consejo para compartir o simplemente quieres hablar sobre esta canción? Comience la discusión

Debes iniciar sesión para unirte a la discusión
o Registrarse

 

Acerca de esta canción

No hay información por esta canción.