Amazing Grace (Intro) Tab por Elvis Presley

tablatura Ukulele sin acordes.

ImprimirAñadir esta tab a su SongBook
Tablature / ChordsFont size: A- A A+

¿ No sabe cómo leer una tablatura o un acorde ?

curso de ukulele

A|-----2---2---------------2---2---5---2-5--5-2----|
E|----------------0--------------------------------|
C|-2----------------2--2---------------------------|
G|---0---0---2-0---------0---0---2--------------0--|

A|-------------------2---2--------|
E|----0-----0---------------------|
C|--2---------2--2----------------|
G|------0-0--------0---0---2-0----|

 

Comentarios (0)
Ningún comentario :(
¿Necesitas ayuda, un consejo para compartir o simplemente quieres hablar sobre esta canción? Comience la discusión

Debes iniciar sesión para unirte a la discusión
o Registrarse

 

Acerca de esta canción

No hay información por esta canción.