Chouzetsu Dynamic Dbz Tab por Dragon Ball

tablatura Ukulele sin acordes.

Añadir esta tab a su SongBook
Tablature / ChordsFont size: A- A A+

¿ No sabe cómo leer una tablatura o un acorde ?

curso de ukulele

e|----------10-/-12-\-10----------10-/-12-\-10----------10-/-12-\-10----------10-/-12-\-10-/-12--|

B|-----------------------------------------------------------------------------------------------|

G|----------------------------------------------12--12----------------12--12---------------------|

D|--12--12----------------12--12-----------------------------------------------------------------|

A|-----------------------------------------------------------------------------------------------|

E|-----------------------------------------------------------------------------------------------|





Verse/Estrofa: x2



e|----------------------------------------------------------------|

B|----------------------------------------------------------------|

G|----------9--7--6--7--------------------------------------------|

D|--7----7--------------9----5--5--5-h-7--5--4-----5--4-----------|

A|----------------------------------------------7--------7--5--5--|

E|----------------------------------------------------------------|





Pre-Chorus/Pre-Estribillo:



e|-------------------------------------------------------------|

B|-------------------------------------------------------------|

G|---------------------------------7---5---3----9---7---5---7--|

D|--7--7--7--7--7--5--4--5--7----------------------------------|

A|-------------------------------------------------------------|

E|-------------------------------------------------------------|





Chorus/Estribillo:



e|----------------------------------------------------------------------------------|

B|----------------------------------------------------------------------------------|

G|--7--7--7--7--7--7--7--7--6---6---6--6--7--6---6--7--4---7--7--7--6--4------4--6--|

D|----------------------------------------------------------------------------------|

A|----------------------------------------------------------------------------------|

E|----------------------------------------------------------------------------------|



e|----------------------------------------------------------------|

B|----------------------------------------------------------------|

G|--7---4---6---7---7------------7--4--6--7---7--4--6--7--7----6--|

D|----------------------7---4-------------------------------------|

A|----------------------------------------------------------------|

E|----------------------------------------------------------------|



e|----------------------------------------------------------------------------------|

B|----------------------------------------------------------------------------------|

G|--7--7--7--7--7--7--7--7--6---6---6--6--7--6---6--7--4---7--7--7--6--4------4--6--|

D|----------------------------------------------------------------------------------|

A|----------------------------------------------------------------------------------|

E|----------------------------------------------------------------------------------|



e|-----------------------------|

B|-----------------------------|

G|--7--6--4--7--6--6--6--6--6--|

D|-----------------------------|

A|-----------------------------|

E|-----------------------------|





Outro:



e|----------10-/-12-\-10----------10-/-12-\-10----------10-/-12-\-10----------10-/-12-\-10-/-12------|

B|---------------------------------------------------------------------------------------------------|

G|----------------------------------------------12--12----------------12--12---------------------12--|

D|--12--12----------------12--12---------------------------------------------------------------------|

A|---------------------------------------------------------------------------------------------------|

E|---------------------------------------------------------------------------------------------------|

 

Comentarios (0)
Ningún comentario :(
¿Necesitas ayuda, un consejo para compartir o simplemente quieres hablar sobre esta canción? Comience la discusión

Debes iniciar sesión para unirte a la discusión
o Registrarse

 

Acerca de esta canción

No hay información por esta canción.