Bola De Dragon (Solo) Tab por Dragon Ball

tablatura Ukulele sin acordes.

Añadir esta tab a su SongBook
Tablature / ChordsFont size: A- A A+

¿ No sabe cómo leer una tablatura o un acorde ?

curso de ukulele

A----------------------------------------
E----------------------------------
C----------------------------------
G-10--10--8-5-10-----10--10--8-5-10------

A-------------------------------------
E-6--6--6--6--6--4-6--6--6--6--6--4---
C-----------------------------------5-
G-------------------------------------

A----------------------------------------
E----------------------------------
C----------------------------------
G-10--10--8-5-10-----10--10--8-5-10------

A-------------------------------------
E-6--6--6--6--6--4-6--6--6--6--6--4---
C-------------------------------------
G------------------------------------5

A------------------------------------------
E--------------------------------------
C--------------------------------------
G-5-8--10---10---10---8--5--8-5--8---8--10-

A------------------------------------------------------
E----------------------------------------------
C----------------------------------------------
G-5-8---10----13--12--10--8----13--12--10---8----10----

A----------------------------------------------------------
E-1---------------6-6-6---6---1----------------6-6-6-4--6--
C----------------------------------------------------------
G---5-5-5---5-5-5-------5-------5-5-5---5-5-5-------------5

A---------------------------------------
E---------------------------------------
C---------------------------------------
G-6-6-6-6-6-6-6-6-8---6-5-6-5-6-5-6-5---

A---------------------------------
E-1----------------6-6-6-6-4-6----
C---------------------------------
G---5-5-5---5-5-5--------------5--

A------------------------------
E-1------------6--4-6----------
C------------------------------
G--5-5-5-5-5-5--------5--5-8---

A---------------------------------------------------------------
E----------------------------------------------------
C----------------------------------------------------
G-10----10--10--10--10---10--10--10--12--10----9--------12------

A----------------------------------------------
E------------------------------------------
C------------------------------------------
G-8---5---8-----13------12---12---10---8--8----

A-------------------------------------------------------
E------------------------------------------------6-
C--------------------------------------------------
G-10---10---10---10---10---8---5-------6---6---6---5----

A----------------------------------------------------------------
E-----------------------------------------------------
C-----------------------------------------------------
G-8---5--8---13---12--12--10--8--8----10--10--10--10--10--13--10-

A----------------------------------
E------------------------------
C------------------------------
G-12--8--5---------12---10----10---

A----------------------------------------
E----------------------------------
C----------------------------------
G-10--10--8-5-10-----10--10--8-5-10------

A-------------------------------------
E-6--6--6--6--6--4-6--6--6--6--6--4---
C-----------------------------------5-
G-------------------------------------

A----------------------------------------
E----------------------------------
C----------------------------------
G-10--10--8-5-10-----10--10--8-5-10------

A----------------------------------------
E-6--6--6--6--6--4-6--6--6--6--6--4------
C----------------------------------------
G-------------------------------------5--

A------------------------------------------
E--------------------------------------
C--------------------------------------
G-5-8--10---10---10---8--5--8-5--8---8--10-

A------------------------------------------------------
E----------------------------------------------
C----------------------------------------------
G-5-8---10----13--12--10--8----13--12--10---8----10----

 

Comentarios (0)
Ningún comentario :(
¿Necesitas ayuda, un consejo para compartir o simplemente quieres hablar sobre esta canción? Comience la discusión

Debes iniciar sesión para unirte a la discusión
o Registrarse

 

Acerca de esta canción

No hay información por esta canción.