Last In Line (Intro) Tab por Dio

tablatura Ukulele sin acordes.

Añadir esta tab a su SongBook
Tablature / ChordsFont size: A- A A+

¿ No sabe cómo leer una tablatura o un acorde ?

curso de ukulele

A|--0--2-------3--5-------5----0-----5-----0--|
E|--------0--0----3-----0----------0-----0----|
C|-----2--0-----------------------------------|
G|--5-----------------------0--5-2-----2---5--|

A|--0--2-------3--5-------2----|
E|--------0--0----3--0----3----|
C|-----2--0---------------2----|
G|--5---------------------0----|

A|--0----2---------3--5-------5----0-----5-----0--|
E|------------0--0----3-----0----------0-----0----|
C|-------2----0-----------------------------------|
G|--5---------------------------0--5-2-----2---5--|

A|--0--2-------3--5-----5---------2----3----|
E|--------0--0----3--0-------1--------------|
C|-----2--0------------------0--------------|
G|--5------------------------2----2----2----|

 

Comentarios (0)
Ningún comentario :(
¿Necesitas ayuda, un consejo para compartir o simplemente quieres hablar sobre esta canción? Comience la discusión

Debes iniciar sesión para unirte a la discusión
o Registrarse

 

Acerca de esta canción

No hay información por esta canción.