Smoke On The Water (Riff) Tab por Deep Purple

tablatura Ukulele sin acordes.

Añadir esta tab a su SongBook
Tablature / ChordsFont size: A- A A+

¿ No sabe cómo leer una tablatura o un acorde ?

curso de ukulele

A | --0---3---5------------- |

E | --0---3---5------------- |

C | ------------------------- |

G | ------------------------- |


A | --0---3---6--5---------- |

E | --0---3---6--5---------- |

C | -------------------------- |

G | -------------------------- |


A | --0---3---5---3---0----- |

E | --0---3---5---3---0----- |

C | -------------------------- |

G | -------------------------- |

 

Comentarios (1)
Debes iniciar sesión para unirte a la discusión
o Registrarse

 

Waterbooper avatar
flag for US(ISO2) (Duluth)
A very simple version but it sounds OK
30 Jun 2016
Acerca de esta canción

No hay información por esta canción.