Crystal Mountain Tab por Death

tablatura Ukulele sin acordes.

Añadir esta tab a su SongBook
Tablature / ChordsFont size: A- A A+

¿ No sabe cómo leer una tablatura o un acorde ?

curso de ukulele

Intro:
A |-----------7-------------6-----------7---9--8--3--5-------------7-|
E |-0--0-0-0--6----0--0-0-0-5--0--0-0-0-6---7--6--1--3----0--0-0-0-6-|
C |------------------------------------------------------------------|
G |------------------------------------------------------------------|

A |----------6-----------------12-11----------------11-12------|
E |-0--0-0-0-5----13-12-10-8--7-------13-12-10-12-13------8-7--|
C |------------------------------------------------------------|
G |------------------------------------------------------------|

A |-0---------------------0--10-----3-5----|
E |--------------------3----------1--------|
C |----------------------------------------|
G |----9--4----4-5-------------------------|

A |--5--7--8---5--------4---4---3-|-5--7--8---------4--4--3---|
E |--4--6--7------------3---4---2-|-3--5--6--3------2--4--3---|
C |-------------------------------|---------------------------|
G |-------------------------------|---------------------------|

A |-----------------------------------------------------------------------
E |--5------------------------------------5-------5-----------5-------5---
C |-----------2--4----2---------2--4--5-------5-------------------5-------
G |----4-5--------5-----4--5-------------------------4--5--4--------------

A ------------------------------------|
E ------------------------------------|
C --5---4--2--4--5---4--2--------2----|
G -------------------------4--5-----5-|

Chorus:
A |--2----------------3------------------------|
E |---0----------------1---------------/15\0---|
C |--------------------------------------------|
G |--------------------------------------------|

A |----------7--7---------5--0--8--0--7-------------------------------------5--0--7-------|
E |--0-0-0-0------0-0-0-0---------------------0--0000-0000-0000-0000----------------------|
C |----------11-11------------------------------------------------------------------------|
G |---------------------------------------------------------------------------------------|

A |-------------------7--7---------5--0--8--0--7-----------------------------------5--0--7-------|
E |-0--0--0--0--0--0-------0-0-0-0-------------------0--0000-0000-0000-0000----------------------|
C |-------------------11-11----------------------------------------------------------------------|
G |----------------------------------------------------------------------------------------------|

Right before the lead
H H H H H H H H
A |---2-7----14----15----14----12----10----9----10---|
E |--------0-----0-----0-----0-----0-----0-----0-----|
C |--------------------------------------------------|
G |--------------------------------------------------|X4

 

Comentarios (0)
Ningún comentario :(
¿Necesitas ayuda, un consejo para compartir o simplemente quieres hablar sobre esta canción? Comience la discusión

Debes iniciar sesión para unirte a la discusión
o Registrarse

 

Acerca de esta canción

No hay información por esta canción.