Crash Into Me Tab por Dave Matthews Band

tablatura Ukulele sin acordes.

Añadir esta tab a su SongBook
Tablature / ChordsFont size: A- A A+

¿ No sabe cómo leer una tablatura o un acorde ?

curso de ukulele

# Majority of song (I use my thumb for the G G and C C strings) 

A|-4--7-7-7--0--7--2--7-7-7-----7------------|
E|----0-0-0-----0-----0-0-0--0--0------------|
C|----4-4-4-----4-----4-4-4-----4------------|
G|----4-4-4-----4-----4-4-4------------------|

A|----7-7-7--0--7--2--7-7-7-----7------------|
E|-4--0-0-0-----0-----0-0-0--0--0------------|
C|----0-0-0-----4-----4-4-4-----4------------|
G|--------------4-----4-4-4-----4------------|

# Chorus
A|-4--7-----0--2--7--5-----------------------|
E|----0--4--------4--5-----------------------|
C|----0-----------4--6-----------------------|
G|----------------4--7-----------------------|

# Second guitar/"In * ***'* dream":
A|-7-7-7--9-7--7-7-9-7--7-7-7--11-7--7-7-9-7--|
E|-0-0-0--0-0--0-0-0-0--0-0-0---0-0--0-0-0-0--|
C|-0-0-0--0-0--0-0-0-0--0-0-0---0-0--0-0-0-0--|
G|--------------------------------------------|

 

Comentarios (0)
Ningún comentario :(
¿Necesitas ayuda, un consejo para compartir o simplemente quieres hablar sobre esta canción? Comience la discusión

Debes iniciar sesión para unirte a la discusión
o Registrarse

 

Acerca de esta canción

No hay información por esta canción.