Perish In Flames Tab por Dark Angel

tablatura Ukulele sin acordes.

Añadir esta tab a su SongBook
Tablature / ChordsFont size: A- A A+

¿ No sabe cómo leer una tablatura o un acorde ?

curso de ukulele

You're going to need an uke with at least 13 frets

Play 6 times
A|--------7~8--------6~7--------------------------|
E|-000000-----000000-----000000000000000000000000-|
C|------------------------------------------------|
G|------------------------------------------------|

Play twice
A|--7-8-5-7-4-6--------------------------|
E|----6---5---4-000000000000000000000000-|
C|-11---9---8----------------------------|
G|---------------------------------------|

Play twice
A|-5-7-4-6-3-5---------------------------|
E|----5---4---3-000000000000000000000000-|
C|-9---8---7-----------------------------|
G|---------------------------------------|

A|--7-8-5-7-4-5---5-7-4-6-3-5--2-|
E|----6---5---3-----5---4---3--0-|
C|-11---9---8-----9---8---7----4-|
G|-------------------------------|

Play 6 times
A|--7---------------7--8-|-----------2-|--------------2-----3-----4-|
E|----000000000000-------|-000000000---|-000000000000---000---000-2-|
C|-11--------------11-12-|-----------6-|--------------6-----7-------|
G|-----------------------|-------------|----------------------------|

Play twice
A|-444444444444-222-444444444-555-|-444444444-222-444444444-----|
E|--------------------------------|-----------------------------|
C|--------------------------------|-------------------------666-|
G|--------------------------------|-----------------------------|

Play twice
A|-666666666666--7/ 8---7/ 9---7/ 9-|
E|----------------------------------|
C|--------------11/12--11/13--11/13-|
G|----------------------------------|

Play twice
A|---------------4-5---7---3/2-|
E|-000000000000--2-3-0-5-0-----|
C|-------------------------7/6-|
G|-----------------------------|

Play twice
A|-666666666666--7/ 8---7/ 9---7/ 9-|
E|----------------------------------|
C|--------------11/12--11/13--11/13-|
G|----------------------------------|

Play twice
A|---------------4-5---7---3/2-|
E|-000000000000--2-3-0-5-0-----|
C|-------------------------7/6-|
G|-----------------------------|

Play 6 times
A|--7---------------7--8-|-----------2-|--------------2-----3-----4-|
E|----000000000000-------|-000000000---|-000000000000---000---000-2-|
C|-11--------------11-12-|-----------6-|--------------6-----7-------|
G|-----------------------|-------------|----------------------------|

Play twice
A|-444444444444-222-444444444-555-|-444444444-222-44444444------|
E|--------------------------------|-----------------------------|
C|--------------------------------|-------------------------666-|
G|--------------------------------|-----------------------------|

Play twice
A|-666666666666--7/ 8---7/ 9---7/ 9-|
E|----------------------------------|
C|--------------11/12--11/13--11/13-|
G|----------------------------------|

Play twice
A|---------------4-5---7---3/2-|
E|-000000000000--2-3-0-5-0-----|
C|-------------------------7/6-|
G|-----------------------------|

Play twice
A|-666666666666--7/ 8---7/ 9---7/ 9-|
E|----------------------------------|
C|--------------11/12--11/13--11/13-|
G|----------------------------------|

Play twice
A|---------------4-5---7---3/2-|
E|-000000000000--2-3-0-5-0-----|
C|-------------------------7/6-|
G|-----------------------------|

Play 4 times under solo
A|--7------------7--8------------7------4/5------6------8-|
E|----000000000-------000000000-----000-----000----000----|
C|-11-----------11-12-----------11------8/9-----10-----12-|
G|--------------------------------------------------------|

Play 4 times under solo
A|----------------------------------------------------|
E|-3-3-3-3-3-3-3-3-3--6-3-0--3-3-3-3-3-3-3-3-3--1-1-1-|
C|----------------------------------------------------|
G|----------------------------------------------------|

Play 4 times
A|--7------------7--8------------7------4/5------6------8-|
E|----000000000-------000000000-----000-----000----000----|
C|-11-----------11-12-----------11------8/9-----10-----12-|
G|--------------------------------------------------------|

Play 4 times
A|----------------------------------------------------|
E|-3-3-3-3-3-3-3-3-3--6-3-0--3-3-3-3-3-3-3-3-3--1-1-1-|
C|----------------------------------------------------|
G|----------------------------------------------------|

A|-----------------------------------|
E|---------------------------------0-|
C|-6-7-5-6-4-5-3-4-6-7-5-6-4-5-3-4-4-|
G|-4h5-3h4-2h3-1h2-4h5-3h4-2h3-1h2-2-|

Play 4 times
A|-2---3---6---5---|-2---3---6---5---|-2---3---6---5---|-3-2-0--4-3-0--3-2-0--4-3-0-|
E|-0-0-1-0-4-0-3-0-|-0-0-1-0-4-0-3-0-|-0-0-1-0-4-0-3-0-|----------------------------|
C|-----------------|-----------------|-----------------|----------------------------|
G|-----------------|-----------------|-----------------|----------------------------|

A|-2-|
E|-0-|
C|-4-|
G|---|

Play 6 times
A|--7---------------7--8-|-----------2-|--------------2-----3-----4-|
E|----000000000000-------|-000000000---|-000000000000---000---000-2-|
C|-11--------------11-12-|-----------6-|--------------6-----7-------|
G|-----------------------|-------------|----------------------------|

Play twice
A|-444444444444-222-444444444-555-|-444444444-222-444444444-----|
E|--------------------------------|-----------------------------|
C|--------------------------------|-------------------------666-|
G|--------------------------------|-----------------------------|

Play twice
A|-666666666666--7/ 8---7/ 9---7/ 9-------|
E|----------------------------------------|
C|--------------11/12--11/13--11/13-------|
G|----------------------------------------|

Play twice
A|---------------4-5---7---3/2-|
E|-000000000000--2-3-0-5-0-----|
C|-------------------------7/6-|
G|-----------------------------|

Play twice
A|-666666666666--7/ 8---7/ 9---7/ 9-|
E|----------------------------------|
C|--------------11/12--11/13--11/13-|
G|----------------------------------|

Play 4 times
A|---------------4-5---7---3/2-|
E|-000000000000--2-3-0-5-0-----|
C|-------------------------7/6-|
G|-----------------------------|

A|-2-|-----------------2-1-2-|-2---2---|
E|---|-0-1-2-0-2-3-0-1-----0-|-0---0---|
C|-6-|-----------------------|-4---4---|
G|-4-|-----------------------|---------|

 

Comentarios (0)
Ningún comentario :(
¿Necesitas ayuda, un consejo para compartir o simplemente quieres hablar sobre esta canción? Comience la discusión

Debes iniciar sesión para unirte a la discusión
o Registrarse

 

Acerca de esta canción

No hay información por esta canción.